Oops, an error
Loading. Please wait.

No Te Compro bass

by Tronic
455 views 1 this week
no commentswrite comment
1 2 3 4 5
3 more votes to show rating
add to favorites
×
Save as Personal and add changes to this tab that will be seen only by you. Learn more ›
×
You can save this tab as Personal to edit and correct it or add notes. All changes will be seen only by you. Learn more »
launch autoscroll
font size
0
reset
guitar tuner
edit
Autoscroll
slow
fast
+/-
esc
set tempo
stop
Author
++++++++++++++++++++++++
| Tronic- No Te Compro |
++++++++++++++++++++++++


"No te compro ni la mitad de lo que tu me hablai..."

Tuning: EADG


No te kompro... Wuaa!!

Intro
1.
G|-----------------|
D|-----------------|
A|-----------------|
E|-5-5-5-5-6-6-6-6-|

Verse
"Me da risa escuchar..."
2.
G|---------------------------------------------------|
D|---------------------------------------------------|
A|---------------------------------------------------|
E|-11x--------55x----66x----11x--------55x----66x----|

"Mas piola ser así..."
3.
G|-------------------------------------|
D|-33333333-33553333-------------------|
A|-------------------------------------|--x2
E|-------------------55555555-66666666-|

Pre-Chorus
"Y si pensai que porque vo andai arreglao..."
4.
G|------------------------------------------------------|
D|------------------------------------------------------|
A|-33333333-00000000-11111111-33333333-00000000-1111111-|
E|------------------------------------------------------|

Chorus
"No te compro ni la mitad..."
5.
G|--------------------------------------------------|
D|--------------------------------------------------|
A|----------------3-333333-5555-7777-00-000--11-111-|--x2
E|-1-111111111111-----------------------------------|

Verse
"Me da rabia contestar..."
6.
G|-------------------------------------|
D|-33333333-33333333-------------------|
A|-------------------------------------|
E|-------------------55555555-66665555-|

"Escucheme señor yo no soy robot..."
7.
G|-------------------------------------|
D|-33333333-33333333-------------------|
A|-------------------------------------|
E|-------------------55555555-66666666-|

"Desde chico me enseñaron..."
8.
G|-------------------------------------|
D|-33333333-33553333-------------------|
A|-------------------------------------|--x2
E|-------------------55555555-66666666-|

Pre-Chorus
"Si demostrai que eres un ser materialista..."
9.
G|------------------------------------------------------|
D|------------------------------------------------------|
A|-33333333-00000000-11111111-33333333-00000000-1111111-|
E|------------------------------------------------------|

Chorus
"No te compro ni la mitad..."
10.
G|--------------------------------------------------|
D|--------------------------------------------------|
A|----------------3-333333-5555-7777-00-000--11-111-|--x2
E|-1-111111111111-----------------------------------|

Outro
"Usted señor es un farsante..."
11.
G|-------------------|
D|-------------------|
A|-33333333-33333333-|
E|-------------------|

Bridge
12.
G|-------------------------------------------------------------------------|
D|-------------------------------------------------------------------------|
A|-------------------------------------------------------------------------|
E|-66666666-66666666-55555555-55555555-33333333-33333333-11111111-11111111-|

13.
G|-------------------------------------------------------------------------|
D|-33333333-33333333-------------------------------------33333333-33333333-|
A|-------------------------------------------------------------------------|
E|-------------------55555555-55555555-33333333-33333333-------------------|

Chorus
"No te compro ni la mitad..."
14.
G|--------------------------------------------------|
D|--------------------------------------------------|
A|----------------3-333333-5555-7777-00-000--11-111-|
E|-1-111111111111-----------------------------------|

"Como se te puede ocurrir..."
15.
G|--------------------------------------------------|
D|--------------------------------------------------|
A|-----------------------------------00-000--11-111-|
E|--------------------------------------------------|

"No te compro ni la mitad..."
16.
G|-------------------------------------------------------------------------|
D|-------------------------------------------------------------------------|
A|-11111111-11111111-33333333-33333333-55555555-55555555-77777777-88887777-|
E|-------------------------------------------------------------------------|

"Cuando sientas humildad..."
17.
G|----------------------------------------|
D|----------------------------------------|
A|-11111111-11111111-33333333-33333333-8~-|
E|----------------------------------------|


Lyrics:


Me da risa escuchar
Esa gente que piensa que el que tiene mas
Es el superior
Mas piola ser así
Tranquilo y mas normal
Si queris conversar acercate nomas

Y si pensai que porque vo andai arreglao
Eres el mas correcto

No te compro ni la mitad
De lo que tu me hablai
Chucha que eres ignorante
Como se te puede ocurrir
Que porque yo me visto así
Voi a ser el ignorante

Me da rabia contestar
El telefono una grabación
Escucheme señor yo no soy robot
Desde chico me enseñaron
Que el respeto es primordial
Si usted me empuja a mi, quien es el roto aquí

Si demostrai que eres un ser materialista
No tienes intelectuo

No te compro ni la mitad
De lo que tu me hablai
El respeto me hace ser un ser pensante
Cuando sientas humildad
Todo se te arreglará



+++++++++++++++++++++++++++++++++
| RaiLeff                       |
| Underground__Dora@Hotmail.Com |
+++++++++++++++++++++++++++++++++

            
            
Suggest correction
Creating personal tab
Creating personal tab
You can edit any tab online and save it as your Personal.

You can edit, replace or remove any tab part or add personal notes – all changes will be seen only by you.

Personal tabs can be accessed anytime from any device, even offline.
Learn more »
Give kudos to tab author, rate the tab!
1 2 3 4 5
comments
print report bad tab
guest
You may want to rate the tab now too:
select rating
Wanna post a correction for this tab? Suggest correction