Oops, an error
Loading. Please wait.

Nunca Olvidaremos bass

by Tronic
312 views 3 this week
no commentswrite comment
1 2 3 4 5
3 more votes to show rating
add to favorites
×
Save as Personal and add changes to this tab that will be seen only by you. Learn more ›
×
You can save this tab as Personal to edit and correct it or add notes. All changes will be seen only by you. Learn more »
launch autoscroll
font size
0
reset
guitar tuner
edit
Autoscroll
slow
fast
+/-
esc
set tempo
stop
Author
+++++++++++++++++++++++++++++
| Tronic- Nunca Olvidaremos |
+++++++++++++++++++++++++++++


"Te pido un favor, para de hablar weas..."

Tuning: EADG


Verse
"Que facil es pelar al que ha caído..."
1.
G|-------------------------------------|
D|-------------------------------------|
A|-33333333-33333333/88888888-88888888-|
E|-------------------------------------|

"Aunque haya sido el que nos dió victorias..."
2.
G|-------------------------------------|
D|-------------------55555555-55555555-|
A|-33333333-33333333-------------------|
E|-------------------------------------|

"Nos falta recordar..."
3.
G|------------------------------------|
D|-------------------33333333/5-3-2/3-|
A|-00000000-00000000------------------|
E|------------------------------------|

"Tirando mierda no aportas nada..."
4.
G|-------------------------------------|
D|-------------------55555555-55555555-|
A|-33333333-33333333-------------------|
E|-------------------------------------|

Pre-Chorus
"Nunca vamos a olvidar..."
5.
G|-----------------------------------------------------------------|
D|---------222x----3323-00000000-55555555----------3-3-3-3-55-555x-|
A|-000x-----------------------------------00000000-----------------|
E|-----------------------------------------------------------------|

Chorus
"Aquellos que siempre estan donde calienta el sol..."
6.
G|-------------------------------------------------|
D|-------55555-------33333-------55555-33333-55555-|
A|-33333-------00000-------33333-------------------|
E|-------------------------------------------------|

Verse
"Recuerdas cuando estaba tu familia..."
7.
G|-------------------------------------|
D|-------------------------------------|
A|-33333333-33333333/88888888-88888888-|
E|-------------------------------------|

"Reunida celebraba Chile gana..."
8.
G|-------------------------------------|
D|-------------------55555555-55555555-|
A|-33333333-33333333-------------------|
E|-------------------------------------|

"No seas maricon..."
9.
G|-----------------------------------|
D|--------------------333333/5-3-2/3-|
A|-00000000-0000000x-----------------|
E|-----------------------------------|

"Te regaló el triunfo que esperabas..."
10.
G|-------------------------------------|
D|-------------------55555555-55555555-|
A|-33333333-33333333-------------------|
E|-------------------------------------|

Pre-Chorus
"Nunca vamos a olvidar..."
11.
G|-----------------------------------------------------------------|
D|---------222x----3323-00000000-55555555----------3-3-3-3-55-555x-|
A|-000x-----------------------------------00000000-----------------|
E|-----------------------------------------------------------------|

Chorus
"Aquellos que siempre estan donde calienta el sol..."
12.
G|-------------------------------------------------|
D|-------55555-------33333-------55555-33333-55555-|
A|-33333-------00000-------33333-------------------|--x2
E|-------------------------------------------------|

Outro
"Te pido un favor..."
13.
G|-------------------------------------------------------|
D|----------33333333----------22222222-------3~----5~----|
A|-00000000----------33333333----------0~----------------|
E|-------------------------------------------------------|

Bridge
14.
G|----------------------------------------------------------------------|
D|----------------------------33333333-2-222-223-333-33--------2-222-22-|
A|-----------------------------------------------------3-333-33---------|--x2
E|-55555555\44444444\33333333-------------------------------------------|

2:05
15.
G|-------------------------------------------------------------------|
D|-77777777\22222222-33333333----------77777777-22222222-33333333-5~-|
A|-------------------------------------------------------------------|
E|----------------------------33333333-------------------------------|

Chorus
"Aquellos que siempre estan donde calienta el sol..."
16.
G|-------------------------------------------------|
D|-------55555-------33333-------55555-33333-55555-|
A|-33333-------00000-------33333-------------------|--x2
E|-------------------------------------------------|

Outro
17.
G|------------------------------|
D|-------------------555555-55x-|
A|-33333333-33333333------------|
E|------------------------------|


Lyrics: 


Que facil es pelar al que ha caído
Aunque haya sido el que nos dió victoria
Nos falta recordar
Que es lo que has hecho tú
Tirando mierda no aportas nada

Nunca vamos a olvidar
Al ke nos alegró
Y triunfó por la nación

Aquellos que siempre estan donde calienta el sol
No valen nada

Rekuerdas cuando estaba tu familia
Reunida celebraba Chile gana
No seas maricon
Con el que alguna vez
Te regaló el triunfo que esperabas

Aquellos que siempre estan donde calienta el sol
No valen nada
Critican porque sienten envidia 
Y nunca han logrado nada

Te pido un favor
Para de ablar weas
Porque humillando no se gana



+++++++++++++++++++++++++++++++++
| RaiLeff                       |
| Underground__Dora@Hotmail.Com |
+++++++++++++++++++++++++++++++++

            
            
Suggest correction
Creating personal tab
Creating personal tab
You can edit any tab online and save it as your Personal.

You can edit, replace or remove any tab part or add personal notes – all changes will be seen only by you.

Personal tabs can be accessed anytime from any device, even offline.
Learn more »
Give kudos to tab author, rate the tab!
1 2 3 4 5
comments
print report bad tab
guest
You may want to rate the tab now too:
select rating
Wanna post a correction for this tab? Suggest correction