Oops, an error
Loading. Please wait.

Primitivo bass

by Tronic
152 views 1 this week
no commentswrite comment
1 2 3 4 5
3 more votes to show rating
add to favorites
×
Save as Personal and add changes to this tab that will be seen only by you. Learn more ›
×
You can save this tab as Personal to edit and correct it or add notes. All changes will be seen only by you. Learn more »
launch autoscroll
font size
0
reset
guitar tuner
edit
Autoscroll
slow
fast
+/-
esc
set tempo
stop
Author
+++++++++++++++++++++
| Tronic- Primitivo |
+++++++++++++++++++++


"Para ya de robar porfavor, date cuenta que las cosas cuestan..."

Tuning: EADG


Verso
[Hay que cambiar un problema social..."
1.
G|------------------------------------------------------------|
D|------------------------------------------22222222-22222222-|
A|-------333333--------333333--------333333-------------------|
E|-550111--------550111--------550111-------------------------|

"Comprando lo que le roba al peatón..."
2.
G|------------------------------|
D|--------------2-2-2-2-2-2-0-0-|
A|-------333333-----------------|
E|-550111-----------------------|

Pre-Chorus
"No puedo entender..."
3.
G|---------------------------------------------------------|
D|-333333-555553--------222222--------333333-555555-222555-|
A|-----------------------------555555----------------------|
E|---------------555555------------------------------------|

Chorus
"Para ya de robar..."
4.
G|-----------------------------------------------------------------------|
D|-33333333-3333332------------------------------------55555555-33332222-|
A|------------------5555555-5555--35-33333333-33333333-------------------|
E|------------------------------55---------------------------------------|

"Tu vida indigna es lo peor..."
5.
G|-------------------------------------|
D|-------------------33333333/55555555-|
A|-55555555-55555555-------------------|
E|-------------------------------------|

Verse
"Escúchame, tu debes entender..."
6.
G|------------------------------------------------------------|
D|------------------------------------------22222222-22222222-|
A|-------333333--------333333--------333333-------------------|
E|-550111--------550111--------550111-------------------------|

"El mundo se pondrá peor..."
7.
G|------------------------------|
D|--------------2-2-2-2-2-2-0-0-|
A|-------333333-----------------|
E|-550111-----------------------|

Pre-Chorus
"Si negociai con el..."
8.
G|---------------------------------------------------------|
D|-333333-555553--------222222--------333333-555555-222555-|
A|-----------------------------555555----------------------|
E|---------------555555------------------------------------|

Chorus
"Para ya de robar..."
9.
G|-----------------------------------------------------------------------|
D|-33333333-3333332------------------------------------55555555-33332222-|
A|------------------5555555-5555--35-33333333-33333333-------------------|
E|------------------------------55---------------------------------------|

"Tu vida indigna es lo peor..."
10.
G|-----------------------------------------------------------------------|
D|------------------33333333-33333322-------------------55555555-33332222|
A|55555555-55555555-------------------33333333-33333333------------------|
E|-----------------------------------------------------------------------|

"Será tu condena por ser ladrón..."
11.
G|-------------------------------------|
D|-------------------33333333/55555555-|
A|-55555555-55555555-------------------|
E|-------------------------------------|

Bridge
12.
G|----------------------------------------------------------------|
D|------------------------------------------------------------222-|
A|----------------------333---333--------------------------333----|
E|-55555555-55555555-555---111----55555555-55555555-555-111-------|

13.
G|--------------------------------------------------|
D|--------------------------------------------------|
A|----------------------333---333-------------------|
E|-55555555-55555555-555---111----55555555-55555555-|

Chorus
"Para ya de robar..."
14.
G|-----------------------------------------------------------------------|
D|-3-3-3-3-3-3x----------------------------------------55555555-33332222-|
A|------------------5555555-5555--35-33333333-33333333-------------------|
E|------------------------------55---------------------------------------|

"Tu vida indigna es lo peor..."
15.
G|-----------------------------------------------------------------------|
D|------------------33333333-33333322-------------------55555555-33332222|
A|55555555-55555555-------------------33333333-33333333------------------|
E|-----------------------------------------------------------------------|

"Será tu condena por ser ladrón..."
16.
G|-------------------------------------|
D|-------------------33333333/55555555-|
A|-55555555-55555555-------------------|
E|-------------------------------------|

Outro
17.
G|-----------------------------|
D|-----------------------------|
A|-------333----------333------|
E|-550111---333-550111---3x-3x-|


Lyrics:


Hay que cambiar un problema social
Todos se quejan de ladron
El error está en negociar con él
Comprando lo que roba al peatón

No puedo entender como ese weon
Nos roba en nuestra puerta

Para ya de robar porfavor
Date cuenta que las cosas cuestan
Tu vida indigna es lo peor

Escúchame, tu debes entender
Que piratear no es trabajar
Si tu le compras al ladron
El mundo se pondrá peor

Si negociai kon el, no te quejes 
De que hay mucha delincuencia

Para ya de robar porfavor
Date cuenta que las cosas cuestan
Tu vida indigna es lo peor
Y jamas podras sentirte libre
Será tu condena por ser ladron



+++++++++++++++++++++++++++++++++
| RaiLeff                       |
| Underground__Dora@Hotmail.Com |
+++++++++++++++++++++++++++++++++

            
            
Suggest correction
Creating personal tab
Creating personal tab
You can edit any tab online and save it as your Personal.

You can edit, replace or remove any tab part or add personal notes – all changes will be seen only by you.

Personal tabs can be accessed anytime from any device, even offline.
Learn more »
Give kudos to tab author, rate the tab!
1 2 3 4 5
comments
print report bad tab
guest
You may want to rate the tab now too:
select rating
Wanna post a correction for this tab? Suggest correction