Oops, an error
Loading. Please wait.

Zem Zem bass

by Tronic
1,498 views 3 this week
no commentswrite comment
1 2 3 4 5
3 more votes to show rating
add to favorites
×
Save as Personal and add changes to this tab that will be seen only by you. Learn more ›
×
You can save this tab as Personal to edit and correct it or add notes. All changes will be seen only by you. Learn more »
launch autoscroll
font size
0
reset
guitar tuner
edit
Autoscroll
slow
fast
+/-
esc
set tempo
stop
Author
+++++++++++++++++++
| Tronic- Zem Zem |
+++++++++++++++++++


"Yo quiero dormir siempre que tu estes en mi..."

Tuning: EADG


Intro
1.
G|---------------0~----------------------2~--4~--------6~--------|
D|-0~----------------------2~--4~--------------------------------|
A|-----------0~--------------------------------------------------|
E|---------------------------------------------------------------|

2.
G|-------------------00000000-0000------------------2222-44444444----------|
D|-00000000-0000------------------2222-44444444-4444-----------------------|
A|--------------0000----------------------------------------------00000000-|
E|-------------------------------------------------------------------------|

Verse
"Yo quiero fumar..."
3.
G|---------------------------------------------------------|
D|-0x------------------------------------------------------|
A|-------------------------------------0~------------------|
E|-------------------3x--------------------------3x--------|

"Yo quiero viajar..."
4.
G|-------------------00000000-0000--------------0~--------|
D|-00000000-00007777--------------4444--------------------|
A|-------------------------------------00000000-----------|
E|--------------------------------------------------------|

5.
G|-------------------00000000-0000------------------2222-44444444----------|
D|-00000000-0000------------------2222-44444444-4444-----------------------|
A|--------------0000----------------------------------------------00000000-|
E|-------------------------------------------------------------------------|

Verse
"Yo quiero dormir..."
6.
G|---------------------------------------------------------|
D|-0x------------------------------------------------------|
A|-------------------------------------0~------------------|
E|-------------------3x--------------------------3x--------|

Chorus
"Well zem zem zem..."
7.
G|-----------------------------------------------------------------------------------------|
D|-----------------------------------------------------------------------------------------|
A|-----------------------5~--5~-554-0~--0~-000-----------------------5~--5~-554-0~--0~-000-|
E|-2~--2~-222-3~--3~-333-----------------------2~--2~-222-3~--3~-333-----------------------|

"Y llega el abogado..."
8.
G|-------------------|
D|-44444445~-5555555-|
A|-------------------|
E|-------------------|

Verse
"Yo quiero fumar..."
9.
G|---------------------------------------------------------|
D|-0x------------------------------------------------------|
A|-------------------------------------0~------------------|
E|-------------------3x--------------------------3x--------|

"Yo quiero reír..."
10.
G|-------------------00000000-0000--------------00000000-|
D|-00000000-00007777--------------4444-------------------|
A|-------------------------------------00000000----------|
E|-------------------------------------------------------|

Chorus
"Well zem zem zem..."
11.
G|-----------------------------------------------------------------------------------------|
D|-----------------------------------------------------------------------------------------|
A|-----------------------5~--5~-554-0~--0~-000-----------------------5~--5~-554-0~--0~-000-|
E|-2~--2~-222-3~--3~-333-----------------------2~--2~-222-3~--3~-333-----------------------|

"Y llega el abogado..."
12.
G|-------------------|
D|-44444445~-5555555-|
A|-------------------|
E|-------------------|

Bridge
"Y llega mi papa..."
13.
G|-------------------------------------------------------------------------|
D|-------------------------------------------------------44444444-55555555-|
A|-55555554-00000000-------------------55555554-00000000-------------------|
E|-------------------22222222-33333333-------------------------------------|

"Se agarran a balazos..."
14.
G|-----------------------------------------------------------|
D|---------------------------------------------5~--4~--5-4-2-|
A|-5~-5~-554-0~-000-000--------------------------------------|
E|---------------------3-2~--2~--222-3~----------------------|

Outro
"Familia muy linda..."
15.
G|-------------------------------------------------------------------------|
D|-------------------------------------------------------------------------|
A|-55555554-22222220-------------------55555554-22222220-------------------|
E|-------------------22222222-33333333-------------------22222222-33333333-|

"Familia muy linda..."
16.
G|-------------------------------------------------------------------------|
D|-------------------44444444-55555555-------------------44444444-55555555-|
A|-55555554-22222220-------------------55555554-22222220-------------------|
E|-------------------------------------------------------------------------|

17.
G|-------------------|
D|-0~----------------|
A|-------------------|
E|-------------------|


Lyrics:


Yo quiero fumar, quiero dejar de tomar
Yo quiero tomar, quiero dejar de fumar
Yo quiero webear y a nadie le importa
Yo quiero viajar, quiero llevarme a mi hogar
Yo quiero jugar, quiero también regalar
Yo quiero webear y a nadie le importa

Yo quiero reír, no quiero pensar en morir
Yo quiero dormir siempre que tu estes en mi
Te quiero drogar y a nadie le importa

Well zem zem zem me subo a la cama tomo mamadera
Mi mama me pega, yo le pego a ella
Llega el presidente me tira pal frente
Llega el abogado

Te quiero culear y a nadie le importa

Y llega mi papa, y llega mi papa
Y llega mi papa le pega a mi mama
Mi hermana se ríe yo le pego a ella
Se agarran a balazos

Familia muy linda
Familia bonita



+++++++++++++++++++++++++++++++++
| RaiLeff                       |
| Underground__Dora@Hotmail.Com |
+++++++++++++++++++++++++++++++++

            
            
Suggest correction
Creating personal tab
Creating personal tab
You can edit any tab online and save it as your Personal.

You can edit, replace or remove any tab part or add personal notes – all changes will be seen only by you.

Personal tabs can be accessed anytime from any device, even offline.
Learn more »
Give kudos to tab author, rate the tab!
1 2 3 4 5
comments
print report bad tab
guest
You may want to rate the tab now too:
select rating
Wanna post a correction for this tab? Suggest correction