Oops, an error
Loading. Please wait.

Were Here For A Good Time bass

by Trooper
6,049 views 9 this week
no commentswrite comment
1 2 3 4 5
1 last vote to show rating
add to favorites
×
Save as Personal and add changes to this tab that will be seen only by you. Learn more ›
×
You can save this tab as Personal to edit and correct it or add notes. All changes will be seen only by you. Learn more »
launch autoscroll
font size
0
reset
guitar tuner
edit
Autoscroll
slow
fast
+/-
esc
set tempo
stop
Author
Difficulty
----------------------------------------------------------------------------
		      We're Here For A Good Time - Trooper
----------------------------------------------------------------------------

Tabbed By : Nico Drudge
e-mail: masterbasser95@hotmail.com

Tuning:EADG

Intro (0:07)
G|------------------|
D|-4-6-7-----7-4-7--|  **2x**
A|------------------|
E|--------5---------|

Verse 1/Chorus
G|--------------------------------------------------------------------|
D|-4-6-7-----7-4-7--------------7-9----------------------7-----7-4-7--|
A|------------------4-5-7-----7------5-7-9----7-5--5-4----------------|
E|--------5----------------0----------------2----------7----5---------|

Verse 2
G|-------------------------------------------------|
D|-4-----------------------------------------------|
A|---7--5-5-------------------5-5------------------|
E|-----------7-7--5-5--5-5-7------7-7--5-5--5-5-5--|

Pre-Chorus
G|---------------------------------------------|
D|---------------------------------------------|
A|-2--2--2-2--0-2--2--2-4--5-7--7-5--5-4--4-2--|
E|---------------------------------------------|

Key Change(2:37)
G|----------------------------------------------------------------------|
D|-6-8-9-----9-6-9-----------------------------------------9-----9-6-9--|
A|------------------6-7-9-----9-7-9--7-9-11----9-7--7-6-----------------|
E|--------7----------------2-----------------4----------9-----7---------|

G|-------------------------------------|
D|------------------------9-----9-6-9--| **Do this after the above measure**
A|-6-7-9-11----9-7--7-6----------------| **then just repeat above measure**
E|-----------2----------9----7---------|            **again**

Key Change (3:17) 
**This key change just goes up another full note(two frets) and is played**
             **the same as the above key change and fades out**


| /  slide up
| \  slide down
| h  hammer-on
| p  pull-off
| ~  vibrato
| +  harmonic
| x  Mute note
============================================================================

            
            
Suggest correction
Creating personal tab
Creating personal tab
You can edit any tab online and save it as your Personal.

You can edit, replace or remove any tab part or add personal notes – all changes will be seen only by you.

Personal tabs can be accessed anytime from any device, even offline.
Learn more »
Give kudos to tab author, rate the tab!
1 2 3 4 5
comments
print report bad tab
guest
You may want to rate the tab now too:
select rating
Wanna post a correction for this tab? Suggest correction