Oops, an error
Loading. Please wait.

Deeper Into You tab

version 4
version 4

Whole song

Interactive

1,059 views 1 this week
no commentswrite comment
1 2 3 4 5
2 more votes to show rating
add to favorites
×
Save as Personal and add changes to this tab that will be seen only by you. Learn more ›
×
You can save this tab as Personal to edit and correct it or add notes. All changes will be seen only by you. Learn more »
launch autoscroll
font size
0
reset
how to read this tab
guitar tuner
edit
Autoscroll
slow
fast
+/-
esc
set tempo
stop
Artist: TRUSTcompany
Song: Deeper Into You
Album: The Lonely Position Of Neutral
Tabbed by: Kmilongo (kmilo1989@gmail.com)
Tuning: Drop D, half a step down

Intro

Guitar 1

      Q    E  Q    Q.        Q    E  Q    Q.        Q    E  Q    Q.        Q    E  Q    Q.      
D#||----------------------|----------------------|----------------------|----------------------|
A#||----------------------|----------------------|----------------------|----------------------|
F#||----------0----L------|----------0----L------|----------0----L------|----------0----L------|
C#||-------4--------------|-------4--------------|-------4--------------|-------4--------------|
G#||--3-------------------|----------------------|----------------------|----------------------|
C#||----------------------|--2-------------------|--5-------------------|--0-------------------|

  Q    E  Q    Q.        Q    E  Q    Q.        Q    E  Q    Q.        W                 
----------------------|----------------------|----------------------|-------------------|
----------------------|----------------------|----------------------|-------------------|
----------0----L------|----------0----L------|----------0----L------|-------------------|
-------4--------------|-------4--------------|-------4--------------|-------------------|
--3-------------------|----------------------|----------------------|-------------------|
----------------------|--2-------------------|--5-------------------|--0----------------|

Guitar 2 (comes in at 0:08)

      H        E   E   E   E     W                   W                   W 
D#||--------------------------|-------------------|-------------------|-------------------|
A#||--------------------------|-------------------|-------------------|-------------------|
F#||------------------11--12--|--L----------------|--L----------------|--L----------------|
C#||--------------12----------|-------------------|-------------------|-------------------|
G#||--------------------------|-------------------|-------------------|-------------------|
C#||--------------------------|-------------------|-------------------|-------------------|

   Q      Q      Q      Q  
-----------------------------|
-----------------------------|
--11b----11b----11b----11----|
-----------------------------|
-----------------------------|
-----------------------------|

Chorus

Guitar 1

      E.  S E.  E  S E  Q        E.  S E.  E  S E  Q       E.  S E.  E  S E  Q       E.  S E.  E  S E  Q     
D#||--------------------------|-------------------------|-------------------------|-------------------------|
A#||--------------------------|-------------------------|-------------------------|-------------------------|
F#||--5---5-5---5--5-5--5-----|-------------------------|-------------------------|-------------------------|
C#||--5---5-5---5--5-5--5-----|--2---2-2---2--2-2--2----|--5---5-5---5--5-5--5----|--0---0-0---0--0-0--0----|
G#||--3---3-3---3--3-3--3\----|--2---2-2---2--2-2--2----|--5---5-5---5--5-5--5----|--0---0-0---0--0-0--0----|
C#||--------------------------|--2---2-2---2--2-2--2----|--5---5-5---5--5-5--5----|--0---0-0---0--0-0--0----|

  E.  S E.  E  S E  Q        E.  S E.  E  S E  Q       E.  S E.  E  S E  Q       E.  S E  S E  S S S S S S S  
--------------------------|-------------------------|-------------------------|------------------------------|
--------------------------|-------------------------|-------------------------|------------------------------|
--5---5-5---5--5-5--5-----|-------------------------|-------------------------|------------------------------|
--5---5-5---5--5-5--5-----|--2---2-2---2--2-2--2----|--5---5-5---5--5-5--5----|--0---0-0--x-x--x-x-x-x-x-x-x-|
--3---3-3---3--3-3--3\----|--2---2-2---2--2-2--2----|--5---5-5---5--5-5--5----|--0---0-0--x-x--x-x-x-x-x-x-x-|
--------------------------|--2---2-2---2--2-2--2----|--5---5-5---5--5-5--5----|--0---0-0--x-x--x-x-x-x-x-x-x-|

Guitar 2

       E.   S  E   S  E   S  S  S  Q        E.   S  E   S  E   S  S  S  Q   
D#||--14---14-14--15-15--15-15-15-17----|--14---14-14--15-15--15-15-15-17----|
A#||------------------------------------|------------------------------------|
F#||------------------------------------|------------------------------------|
C#||------------------------------------|------------------------------------|
G#||------------------------------------|------------------------------------|
C#||------------------------------------|------------------------------------|

   E.   S  E   S  E   S  S  S  Q        E.   E.   E.   E.   E   E   
--14---14-14--15-15--15-15-15-17----|--14------------------14------|
------------------------------------|-------15--------15-------15--|
------------------------------------|------------14----------------|
------------------------------------|------------------------------|
------------------------------------|------------------------------|
------------------------------------|------------------------------|


   E.   S  E   S  E   S  S  S  Q        E.   S  E   S  E   S  S  S  Q 
--14---14-14--15-15--15-15-15-17----|--14---14-14--15-15--15-15-15-17----|
------------------------------------|------------------------------------|
------------------------------------|------------------------------------|
------------------------------------|------------------------------------|
------------------------------------|------------------------------------|
------------------------------------|------------------------------------|

   E.   S  E   S  E   S  S  S  Q        W
--14---14-14--15-15--15-15-15-17----|---------------------|
------------------------------------|--15b----------------|
------------------------------------|---------------------|
------------------------------------|---------------------|
------------------------------------|---------------------|
------------------------------------|---------------------|

Interlude

                                                            NH   NH   NH   NH                                
      S S E  S E  E  S E  S S S S    S S E  S E  E  S E     S    S    S    S 
D#||------------------------------|------------------------------------------|
A#||------------------------------|------------------------------------------|
F#||------------------------------|----------------------<>10-<>10-<>10-<>10-|
C#||----0-2----2--0--2-2--x-x-x-x-|--x-0-2----2--0--2-2--<>10-<>10-<>10-<>10-|
G#||----0-2--3-2--0--2-2--x-x-x-x-|--x-0-2--3-2--0--2-2--<>10-<>10-<>10-<>10-|
C#||----0-2----2--0--2-2--x-x-x-x-|--x-0-2----2--0--2-2----------------------|

  S S E  S E  E  S E  S S S S    S S E  S E  E  S E  S S S S 
------------------------------|------------------------------|
------------------------------|------------------------------|
------------------------------|------------------------------|
----0-2----2--0--2-2--x-x-x-x-|--x-0-2----2--0--2-2--x-x-x-x-|
----0-2--3-2--0--2-2--x-x-x-x-|--x-0-2--3-2--0--2-2--x-x-x-x-|
----0-2----2--0--2-2--x-x-x-x-|--x-0-2----2--0--2-2--x-x-x-x-|

Verse

      E  E  H.              E  E  H.              E  E  H.              H.           Q      
D#||---------------------|---------------------|---------------------|---------------------|
A#||---------------------|---------------------|---------------------|---------------------|
F#||---------------------|---------------------|---------------------|--5------------------|
C#||--2--2---------------|--2--2---------------|--2--2---------------|--5------------5\----|
G#||--2--2---------------|--2--2---------------|--2--2---------------|--3------------5\----|
C#||--2--2---------------|--2--2---------------|--2--2---------------|---------------5\----|

        PM PM PM PM PM PM PM PM PM PM PM PM          PM PM PM PM PM PM PM PM PM PM PM PM  
  E  E  S  S  S  S  S  S  S  S  S  S  S  S     E  E  S  S  S  S  S  S  S  S  S  S  S  S   
--------------------------------------------|--------------------------------------------|
--------------------------------------------|--------------------------------------------|
--------------------------------------------|--------------------------------------------|
--2--2--4--4--4--5--5--5--4--4--4--5--5--5--|--2--2--4--4--4--5--5--5--4--4--4--0--0--0--|
--2--2--------------------------------------|--2--2--------------------------------------|
--2--2--------------------------------------|--2--2--------------------------------------|

        PM PM PM PM PM PM PM PM PM PM PM PM    PM PM PM PM PM PM PM                                         
  E  E  S  S  S  S  S  S  S  S  S  S  S  S     E  E  E  S  S  S  S  S S S S S S
--------------------------------------------|-----------------------------------|
--------------------------------------------|-----------------------------------|
--------------------------------------------|-----------------------------------|
--2--2--4--4--4--5--5--5--4--4--4--5--5--5--|--0--0--0--0--0--0--0--0-0-0-0-0-0-|
--2--2--------------------------------------|--0--0--0--0--0--0--0--0-0-0-0-0-0-|
--2--2--------------------------------------|--0--0--0--0--0--0--0--0-0-0-0-0-0-|

Repeat Chorus
Repeat Verse
Repeat Chorus
Repeat Interlude

Bridge

Guitar 1

      E  E  S E  E.  E  Q       E  S E  E  E.  E  Q 
D#||-------------------------|-------------------------|
A#||-------------------------|-------------------------|
F#||-------------------------|-------------------------|
C#||--2--2----2--2---2-------|-----2----2--2---2-------|
G#||--2--2----2--2---2-------|-----2----2--2---2-------|
C#||--2--2----2--2---2-------|-----2----2--2---2-------|


  E  E  S E  E.  E  Q       E  S E  E  E.  E  Q 
-------------------------|-------------------------|
-------------------------|-------------------------|
-------------------------|-------------------------|
--2--2----2--2---2-------|-----2----2--2---2-------|
--2--2----2--2---2-------|-----2----2--2---2-------|
--2--2----2--2---2-------|-----2----2--2---2-------|

Guitar 2

      S S S S S S S S S S S S S S S S    S S S S S S S S S S S S S S S S  
D#||----------------------------------|----------------------------------|
A#||----------------------------------|----------------------------------|
F#||--9-9-9-9-9-9-9-9-9-9-9-9-9-9-9-9-|--9-9-9-9-9-9-9-9-9-9-9-9-9-9-9-9-|
C#||----------------------------------|----------------------------------|
G#||----------------------------------|----------------------------------|
C#||----------------------------------|----------------------------------|

  S S S S S S S S S S S S S S S S    S S S S S S S S S S S S S S S S  
----------------------------------|----------------------------------|
----------------------------------|----------------------------------|
--9-9-9-9-9-9-9-9-9-9-9-9-9-9-9-9-|--9-9-9-9-9-9-9-9-9-9-9-9-9-9-9-9-|
----------------------------------|----------------------------------|
----------------------------------|----------------------------------|
----------------------------------|----------------------------------|

   E.   E.   E.   E.   Q     
--14---14---15---15---17----|
----------------------------|
----------------------------|
----------------------------|
----------------------------|
----------------------------|

Final Chorus

Guitar 1

       E.  S E.  E  S E  Q        E.  S E.  E  S E  Q       E.  S E.  E  S E  Q       E.  S E.  E  S E  Q     4x
D#||---------------------------|-------------------------|-------------------------|--------------------------||
A#||---------------------------|-------------------------|-------------------------|--------------------------||
F#||*--5---5-5---5--5-5--5-----|-------------------------|-------------------------|-------------------------*||
C#||*--5---5-5---5--5-5--5-----|--2---2-2---2--2-2--2----|--5---5-5---5--5-5--5----|--0---0-0---0--0-0--0----*||
G#||---3---3-3---3--3-3--3\----|--2---2-2---2--2-2--2----|--5---5-5---5--5-5--5----|--0---0-0---0--0-0--0-----||
C#||---------------------------|--2---2-2---2--2-2--2----|--5---5-5---5--5-5--5----|--0---0-0---0--0-0--0-----||

Guitar 2

        E.   S  E   S  E   S  S  S  Q        E.   S  E   S  E   S  S  S  Q     
D#||---14---14-14--15-15--15-15-15-17----|--14---14-14--15-15--15-15-15-17----|
A#||-------------------------------------|------------------------------------|
F#||*------------------------------------|------------------------------------|
C#||*------------------------------------|------------------------------------|
G#||-------------------------------------|------------------------------------|
C#||-------------------------------------|------------------------------------|

   E.   S  E   S  E   S  S  S  Q        E.   E.   E.   E.   E   E   3x
--14---14-14--15-15--15-15-15-17----|--14------------------14-------||
------------------------------------|-------15--------15-------15---||
------------------------------------|------------14----------------*||
------------------------------------|------------------------------*||
------------------------------------|-------------------------------||
------------------------------------|-------------------------------||

   E.   S  E   S  E   S  S  S  Q        E.   S  E   S  E   S  S  S  Q     
--14---14-14--15-15--15-15-15-17----|--14---14-14--15-15--15-15-15-17----|
------------------------------------|------------------------------------|
------------------------------------|------------------------------------|
------------------------------------|------------------------------------|
------------------------------------|------------------------------------|
------------------------------------|------------------------------------|

   E.   S  E   S  E   S  S  S  Q        W                                      
--14---14-14--15-15--15-15-15-17----|---------------------|
------------------------------------|--15b----------------|
------------------------------------|---------------------|
------------------------------------|---------------------|
------------------------------------|---------------------|
------------------------------------|---------------------|

Outro

      E  E  S E  S E  E  Q       E  E  S E  S E  E  Q       E  E  S E  S E  E  Q       E  E  S E  S E  Q. 
D#||--------------------------|--------------------------|--------------------------|-------------------------||
A#||--------------------------|--------------------------|--------------------------|-------------------------||
F#||--------------------------|--------------------------|--------------------------|-------------------------||
C#||--2--2----2--2-2--2-------|--2--2----2--2-2--2-------|--2--2----2--2-2--2-------|--2--2----2--2-2---------||
G#||--2--2----2--2-2--2-------|--2--2----2--2-2--2-------|--2--2----2--2-2--2-------|--2--2----2--2-2---------||
C#||--2--2----2--2-2--2-------|--2--2----2--2-2--2-------|--2--2----2--2-2--2-------|--2--2----2--2-2---------||

Duration Legend
---------------
W - whole
H - half
Q - quarter
E - 8th
S - 16th
. - note dotted

Tablature Legend
----------------
L - tied note
x - dead note
NH - natural harmonic
b - bend
\ - slide out downwards
PM - palm muting 

If you have anything to add, leave a comment, but please BE POLITE ;)

            
            
Suggest correction
Creating personal tab
Creating personal tab
You can edit any tab online and save it as your Personal.

You can edit, replace or remove any tab part or add personal notes – all changes will be seen only by you.

Personal tabs can be accessed anytime from any device, even offline.
Learn more »
Give kudos to tab author, rate the tab!
1 2 3 4 5
comments
print report bad tab
guest
You may want to rate the tab now too:
select rating
Wanna post a correction for this tab? Suggest correction