Oops, an error
Loading. Please wait.

Maligant Coronation bass

by Tsjuder
446 views 1 this week
no commentswrite comment
1 2 3 4 5
2 more votes to show rating
add to favorites
×
Save as Personal and add changes to this tab that will be seen only by you. Learn more ›
×
You can save this tab as Personal to edit and correct it or add notes. All changes will be seen only by you. Learn more »
launch autoscroll
font size
0
reset
guitar tuner
edit
Autoscroll
slow
fast
+/-
esc
set tempo
stop
Author
Difficulty
Standard Tuning

Riff 1
G|-----------------------|
D|-----------------------|
A|-----------------------|x4
E|-7----8-6-7----7/8\7/8-|
   *    * * *    * * * *
Riff 2
G|-----------------|
D|-----------------|
A|-----------------|x4
E|-5-5-5-5-6-6-4-4-|

Riff 3
G|-----------------|
D|-----------------|
A|-----------------|x4
E|-5-------6---4---|
   *       *   *
Riff 2 x4

Riff 4
G|------------------------------|
D|------------------------------|
A|-5----/7\5----\1/5----/7\5--6-|
E|-*-------*-------*-------*--*-|
x2
G|-------------------------------------|
D|-------------------------------------|
A|-5----/7\5----\1/5----/7\5----/6\5/6-|
E|-*-------*-------*-------*-----------|

Riff 5
G|-----------|
D|-----------|
A|-8-7-6-4-5-|x1
E|-----------|

Riff 6
G|-----------------------------------------------------|
D|-----------------------------------------------------|
A|-5-5-5-5-5-5-/7\4/5-5-5-5-5-5---4/5-5-5-5-5-5-666666-|
E|------------------------------6----------------------|
x2
G|------------------------------------------------------|
D|------------------------------------------------------|
A|-5-5-5-5-5-5-/7\4/5-5-5-5-5-5---4/5-5-5-5-5-5-5/6\5/6-|
E|------------------------------6-----------------------|

Riff 1 x4
Riff 2 x4
Riff 3 x4
Riff 2 x4
Riff 4 x2
Riff 5 x1
Riff 6 x2

Outro riff
G|---------|
D|---------|
A|-8-6-7-5-|x1
E|---------|

* = tremolo picking
/ = slide down
\ = slide up

This is my first time posting a tab. I learned most of it by ear, and had to watch Nag 
it live to find out how it's played. I'm not too good at tabbing, but it should be 
like that. Just listen to the song, and you should be able to catch on.

            
            
Suggest correction
Creating personal tab
Creating personal tab
You can edit any tab online and save it as your Personal.

You can edit, replace or remove any tab part or add personal notes – all changes will be seen only by you.

Personal tabs can be accessed anytime from any device, even offline.
Learn more »
Give kudos to tab author, rate the tab!
1 2 3 4 5
comments
print report bad tab
guest
You may want to rate the tab now too:
select rating
Wanna post a correction for this tab? Suggest correction