Oops, an error
Loading. Please wait.

Our First American Friends album bass

version 1
version 1

Album

Whole song

792 views 1 this week
no commentswrite comment
1 2 3 4 5
2 more votes to show rating
add to favorites
×
Save as Personal and add changes to this tab that will be seen only by you. Learn more ›
×
You can save this tab as Personal to edit and correct it or add notes. All changes will be seen only by you. Learn more »
launch autoscroll
font size
0
reset
guitar tuner
edit
Autoscroll
slow
fast
+/-
esc
set tempo
stop
 Tubelord
 Our First American Friends

 1.Your Bed Is Kind Of Frightening
 2.Somewhere Out There A Dog Is On Fire
 3.Night Of The Pencils
 4.Stacey's Left Arm
 5.Propeller
 6.He Awoke On A Bench In Abergavenny
 7.I Am Azerrad 
 8.Cows To The East, Cities To The West
 9.Synthesize 
 10.Our First American Friends



===============================================================================
 

-------------------------------------------------------------------------------
 1. Your Bed Is Kind Of Frightening 
-------------------------------------------------------------------------------

 (0.54)
G|-------------------------------------|
D|5555555555555555---------------------|
A|-----------------5555555555555555----|
D|-------------------------------------|

G|----------------------------------------------------------------|
D|7-7-7-7-7-7-7-7-5-5-5-5-5-5-5-5-xx-4--4--4--4--4----------------|
A|-------------------------------------------------2--2--555555---|
D|----------------------------------------------------------------|

G|-----------------------------------------------------------------------------|
D|-----------------0/5555555555555555-0/444444444444444-4-0--------------------|
A|----------------------------------------------------------22222222-5555555---|
D|7777777777777777-------------------------------------------------------------|

G|-----------------------------------------------------------------|
D|7-7-7-7-7-7-7-0-5-5-5-5-5-5-5-0-4-4-4-4-4-4-4-0------------------|
A|------------------------------------------------2-2-2-2-5-5-5-5--|
D|-----------------------------------------------------------------|

G|------------------------------------------------|
D|777-7777-777-555-5555-555-4-4-4-4-4-------------|
A|------------------------------------2-2-5-5-5---|
D|------------------------------------------------|

G|------------------------------------------------------------------|
D|4-4-4-4-4-4-4-4-0-0-0-0-0-0-0-0-----------------0-0-0-0-0-0-0-0---|
A|--------------------------------2-2-2-2-2-2-2-2-------------------|
D|------------------------------------------------------------------|

G|------------------------------------------------------------------|
D|0-0-0-0-0-0-0-0-4-4-4-4-4-4-4-4-------------------5-5-5-5-5-5-5---|
A|--------------------------------4-4-4-4-4-4-4-4-4-----------------|
D|------------------------------------------------------------------|

G|-------------------------------------------|
D|4--444--44-0--000--00-4--44-2--22----------|
A|----------------------------------2--222---|
D|-------------------------------------------|

G|------------------------------------------------------|
D|4444444444444444-00000000000000000-44444444-22222222--|
A|------------------------------------------------------|
E|------------------------------------------------------|

G|------------------|
D|------------------|
A|2--222--22--------|
D|-----------0~-----|

 (Pause)

G|------------------------------------------|
D|7777-----4444--5-5--7777------4444-0-0----|
A|-----777-----------------7777-------------|
D|------------------------------------------|

 (Pause)

G|------------------------|
D|5-5-5-5-5-5-5-5-5-------|
A|------------------------|
D|------------------------|

G|----------------------------------------------------------------|
D|----------------9~------7~----------------------5~------7~------|
A|--------4~------------------------------4~----------------------|
D|7~------------------------------7~------------------------------|

G|---------------------------------------------------------------------|
D|---------------------------------------------------------------------|
A|-----------------4444444444444444------------------------------------|
D|7777777777777777------------------9999999999999999-7777777777777777--|

G|---------------------------------------------------------------------|
D|---------------------------------------------------------------------|
A|-----------------4444444444444444------------------------------------|
D|7777777777777777------------------5555555555555555-7777777777777777--|

G|---------------------------------|
D|-------------99-11-----9----7----|
A|-------------------9-------------|
D|7-7-7--7-7-----------------------|

===============================================================================

-------------------------------------------------------------------------------
 2. Somewhere Out There A Dog Is On Fire 
-------------------------------------------------------------------------------

G|----------------|
D|----------------|
A|----------------|
D|2-2-2-2-22------|

G|--------------------------------------|
D|--------------------------------------|
A|2222--2222--------------4444----------|
D|------------4444--4444--------2222----|

G|---------------------------|
D|---------------------------|
A|2222--------4444-----------|
D|------4444--------2222-----|

G|-------------------------------|
D|------444----------------------|
A|2222-------------4444----------|
D|-----------4444--------2222----|

G|----------------------------|
D|----------------------------|
A|---------------4~---4/7~----|
D|4-4-444-6-6-66--------------|

G|----------------------------|
D|----------------------------|
A|9~----11~----4~----7~-------|
D|----------------------------|

G|---------------------------------------------------------|
D|---------------------------------------------------------|
A|5-55-55-5--5-55-55-5-------------------------------------|
D|---------------------555555555555555-7777777777777777----|

G|---------------------------------------------------------------------------|
D|---------------------------------------------------------------------------|
A|22-2-22-2-22-2-22-2-44-4-44-4-44-4-44-4-66-6-66-6-66-6-66-6----------------|
D|------------------------------------------------------------7-7-77-2-2-22--|

 x3
G|--------------------------------------|
D|-------------------------77777777-----|
A|2---2---2---2---77777777--------------|
D|--3--3----3--3------------------------|

 x4
G|--------------------|
D|--------------------|
A|2---2---2---2-------|
D|--3--3----3--3------|

 x8
G|----2-----------2------|
D|--4---4-2p0---4---4----|
A|2-----------2----------|
D|-----------------------|

 x2
G|-----------------------------------|
D|-----------------------------------|
A|2--22-2---------5--55-5------------|
D|--------5--55-5---------2--22-2----|

 x2
G|----------------------------------------------|
D|----------------------------------------------|
A|2-2-22-2-2------------5-5-55-5-5--------------|
D|-----------5-5-55-5-5------------2-2-22-2-2---|

 (2.47 - 3.33)
G|---------------------------------------|
D|---------------------------------------|
A|22222222----------55555555-------------|
D|---------44444444----------55555555----|

G|--------|
D|9/------|
A|--------|
D|--------|

===============================================================================

-------------------------------------------------------------------------------
 3. Night Of The Pencils
-------------------------------------------------------------------------------
 x8
G|-------------|
D|-------------|
A|-------------|
D|0~----4-5----|


G|------------------11~-----|
D|9~----9~----12-12---------|
A|--------------------------|
D|--------------------------|

G|-------14~----------11~---|
D|9--12---------12-12-------|
A|--------------------------|
D|--------------------------|

 x8
G|-------------|
D|-------------|
A|-------------|
D|0~----4-5----|

G|-------------------------------------------------------------------|
D|9-99-9-99--9-99-9-99------------------------9-99-9-99--------------|
A|----------------------5-55-5-55--5-55-5-55-------------9-99-9-99---|
D|-------------------------------------------------------------------|

G|---------------------------------------|
D|---------------------------------------|
A|7-7-77-7-7-77-10-10-1010-10-10-1010----|
D|---------------------------------------|

G|-----------------------------------7-7-7-7-7-7-7-777--|
D|------------------------------------------------------|
A|------------------------------------------------------|
D|0-0-0-0000-0-0------0-0-0-0000-0-0--------------------|

G|--------------------------------------------------------------------|
D|--------------------------------------------------------------------|
A|7777777777777777----------------------------------------------------|
D|-----------------9999999999999999-10101010101010101010101010101010--|

G|--------------------------------------------------------------------------------------|
D|--------------------------------------------------------------------------------------|
A|5555555555555555-7777777777777777------------------10101010101010101010101010101010---|
D|----------------------------------9999999999999999------------------------------------|

G|-------------------------------------------------------------------------------------|
D|-------------------------------------------------------------------------------------|
A|5555555555555555-7777777777777777----------------------------------------------------|
D|----------------------------------9999999999999999-10101010101010101010101010101010--|

G|------------------------------------------------------------------------------------|
D|----------------------------------999999999999999-----------------------------------|
A|5555555555555555-7777777777777777-----------------10101010101010101010101010101010--|
D|------------------------------------------------------------------------------------|

 Pause
 
 (2.05)
G|-------|
D|-------|
A|5------|
D|-------|

 x2
G|----------------------------------------------------|
D|----------------------------------------------------|
A|5-5-5-5-5-5-5-5-5-5-5-5-5---------------------------|
D|--------------------------7-7-7-7-7-7-5-5-5-5-5-5---|

G|-------------------------------------------------|
D|-------------------------------------------------|
A|5-55--5-55--5-55--5-55---------------------------|
D|0-00--0-00--0-00--0-00--7-7-7-7-7-7-5-5-5-5-5-5--|

G|-------------------------------------------------|
D|-------------------------------------------------|
A|-------------------------------------------------|
D|0-00--0-00--0-00--0-00-7-7-7-7-7-7-5-5-5-5-5-5---|

G|-------------------------------------------------|
D|-------------------------------------------------|
A|5-55--5-55--5-55--5-55---------------------------|
D|-----------------------7-7-7-7-7-7-5-5-5-5-5-5---|

 x3
G|----------------------------------|
D|----------------------------------|
A|55555555-77777777-----------------|
D|------------------555555555555----|

G|--------------------------------------|
D|--------------------------------------|
A|--------------------------------------|
D|2222222222222222-5555555555555555-----|

 x2
G|7777777777777777-9999999999999999------------------7777777777777777---|
D|----------------------------------5555555555555555--------------------|
A|----------------------------------------------------------------------|
D|----------------------------------------------------------------------|

 x2
G|------------------------------------------------------------------|
D|--------------------------------5-5-5-5-5-5-5-5-------------------|
A|5-5-5-5-5-5-5-5-7-7-7-7-7-7-7-7-----------------5-5-5-5-5-5-5-5---|
D|------------------------------------------------------------------|

 x2
G|----------------------------------------|
D|--------------5-5-----------------------|
A|5-5----7-7-----------5-5-5-5-5-5-5-5----|
D|----------------------------------------|

G|------------66--77-----|
D|----44--77-------------|
A|55---------------------|
D|-------------------0---|

===============================================================================

-------------------------------------------------------------------------------
 4. Night Of The Pencils
-------------------------------------------------------------------------------
 
 x8
G|-------------|
D|-------------|
A|-------------|
D|0~----4-5----|


G|------------------11~-----|
D|9~----9~----12-12---------|
A|--------------------------|
D|--------------------------|

G|-------14~----------11~---|
D|9--12---------12-12-------|
A|--------------------------|
D|--------------------------|

 x8
G|-------------|
D|-------------|
A|-------------|
D|0~----4-5----|

G|-------------------------------------------------------------------|
D|9-99-9-99--9-99-9-99------------------------9-99-9-99--------------|
A|----------------------5-55-5-55--5-55-5-55-------------9-99-9-99---|
D|-------------------------------------------------------------------|

G|---------------------------------------|
D|---------------------------------------|
A|7-7-77-7-7-77-10-10-1010-10-10-1010----|
D|---------------------------------------|

G|-----------------------------------7-7-7-7-7-7-7-777--|
D|------------------------------------------------------|
A|------------------------------------------------------|
D|0-0-0-0000-0-0------0-0-0-0000-0-0--------------------|

G|--------------------------------------------------------------------|
D|--------------------------------------------------------------------|
A|7777777777777777----------------------------------------------------|
D|-----------------9999999999999999-10101010101010101010101010101010--|

G|--------------------------------------------------------------------------------------|
D|--------------------------------------------------------------------------------------|
A|5555555555555555-7777777777777777------------------10101010101010101010101010101010---|
D|----------------------------------9999999999999999------------------------------------|

G|-------------------------------------------------------------------------------------|
D|-------------------------------------------------------------------------------------|
A|5555555555555555-7777777777777777----------------------------------------------------|
D|----------------------------------9999999999999999-10101010101010101010101010101010--|

G|------------------------------------------------------------------------------------|
D|----------------------------------999999999999999-----------------------------------|
A|5555555555555555-7777777777777777-----------------10101010101010101010101010101010--|
D|------------------------------------------------------------------------------------|

 Pause
 
 (2.05)
G|-------|
D|-------|
A|5------|
D|-------|

 x2
G|----------------------------------------------------|
D|----------------------------------------------------|
A|5-5-5-5-5-5-5-5-5-5-5-5-5---------------------------|
D|--------------------------7-7-7-7-7-7-5-5-5-5-5-5---|

G|-------------------------------------------------|
D|-------------------------------------------------|
A|5-55--5-55--5-55--5-55---------------------------|
D|0-00--0-00--0-00--0-00--7-7-7-7-7-7-5-5-5-5-5-5--|

G|-------------------------------------------------|
D|-------------------------------------------------|
A|-------------------------------------------------|
D|0-00--0-00--0-00--0-00-7-7-7-7-7-7-5-5-5-5-5-5---|

G|-------------------------------------------------|
D|-------------------------------------------------|
A|5-55--5-55--5-55--5-55---------------------------|
D|-----------------------7-7-7-7-7-7-5-5-5-5-5-5---|

 x3
G|----------------------------------|
D|----------------------------------|
A|55555555-77777777-----------------|
D|------------------555555555555----|

G|--------------------------------------|
D|--------------------------------------|
A|--------------------------------------|
D|2222222222222222-5555555555555555-----|

 x2
G|7777777777777777-9999999999999999------------------7777777777777777---|
D|----------------------------------5555555555555555--------------------|
A|----------------------------------------------------------------------|
D|----------------------------------------------------------------------|

 x2
G|------------------------------------------------------------------|
D|--------------------------------5-5-5-5-5-5-5-5-------------------|
A|5-5-5-5-5-5-5-5-7-7-7-7-7-7-7-7-----------------5-5-5-5-5-5-5-5---|
D|------------------------------------------------------------------|

 x2
G|----------------------------------------|
D|--------------5-5-----------------------|
A|5-5----7-7-----------5-5-5-5-5-5-5-5----|
D|----------------------------------------|

G|------------66--77-----|
D|----44--77-------------|
A|55---------------------|
D|-------------------0---|

===============================================================================

-------------------------------------------------------------------------------
 5. Stacey's Left Arm 
-------------------------------------------------------------------------------

G|---------------------|
D|---------------------|
A|2~-------------------|
D|------2~----5~-------|

G|--------------------------------------------------|
D|--------------------------------------------------|
A|2-2-22-2-2---------7-9--2-2-22-2-2---------7-5----|
D|-----------2-2-5-5-----------------2-2-5-5--------|

G|----------------------------------------------|
D|----------------------------------------------|
A|2-2-22-2-2---------7-9--2-2-22-2-2------------|
D|-----------2-2-5-5-----------------2-2-5~-----|

 x4
G|-------------------|
D|-------------------|
A|222222-------------|
D|-------2222-5555---|

G|--------------------------------------------|
D|--------------------------------------------|
A|5~----------------5~------------------------|
D|------5~----7~----------5~----7~----777777--|

G|------------------------------------------------------------|
D|------------------------------------------------------------|
A|-------------5/--5/--5-5------------------------------------|
D|9/--9/--9-9---------------22222222222222-5555555555555555---|

G|--------11-------------|
D|99-7-99---------5-7----|
A|-----------7-7---------|
D|-----------------------|

G|--------11------------------------------------------------------------------|
D|99-7-99---------77-5-77-9-5-5-5--9-7-----9-7----------7-4-----7-4-----------|
A|-----------7-7-----------------------9-7-----9-5-7-7------7-5-----5-7-------|
D|----------------------------------------------------------------------5-5---|

G|------------------------------------------------------|
D|9-7-----9-7----------7-4-----7-4------/101010101010---|
A|----9-7-----9-5-7-7------7-5-----5-7------------------|
D|------------------------------------------------------|

G|----------------------------------|
D|----------------------------------|
A|----------------------------------|
D|0--555-7--5555-0--5555-7--5555----|

G|---------------------|
D|---------------------|
A|5~-------------------|
D|------5~-----7~------|

 x3
G|---------------------------------|
D|---------------------------------|
A|5--------------------------------|
D|------5-----777777777777-444-----|

G|----------------------------|
D|----------------------------|
A|----------------------------|
D|5-5-5-5-55--5--5--77-9/-----|

G|------------------------------------|
D|------------------------------------|
A|------------------------------------|
D|5555555555555555-7777777777777777---|

G|--------------------------|
D|--------------------------|
A|------7--7-7--------------|
D|9-9-9--------5--5-77------|

 x2
G|-------------------------------------------------------|
D|-------------------------------------------------------|
A|-----------------777777--------------------------------|
D|9999999999999999--------55555555555555555555-777777----|

G|------------------------------------------|
D|------------------------------------------|
A|77-7-77-7---------------------------------|
D|----------55555555555555555555-777777-----|

G|-------------------------------------------------------|
D|-------------------------------------------------------|
A|-----------------777777--------------------------------|
D|9999999999999999--------55555555555555555555-777777----|

 (3.45)
G|-------------------|
D|-------------------|
A|-------------------|
D|9~------11~--------|

G|-----------------|
D|-----------------|
A|-----------------|
D|0-0-0-0-000------|

G|--------------------|
D|--------------------|
A|--------------------|
D|5----7----99999-----|

===============================================================================

-------------------------------------------------------------------------------
 5. Propeller 
-------------------------------------------------------------------------------

 Intro (0.05 - 0.26)
G|----------------------------|
D|----------------------------|
A|222222222222222222222222----|
D|----------------------------|

 Verse
G|---------------------------------------------------------------------|
D|---------------------------------------------------------------------|
A|2222222222222222-5555555555555555------------------------------------|
D|----------------------------------7777777777777777-5555555555555555--|

G|---------------------------------------------------------------------------|
D|--------------------------77-4/5-5p4---------------------------------------|
A|2222222222222222-55555555------------5-------------------------------------|
D|---------------------------------------7777777777777777-5555555555555555---|

G|---------------------------------|
D|---------------------------------|
A|22-xx-22-xx-22-xx-22-xx-22-xx----|
D|---------------------------------|


G|----------------------------------------------|
D|----------------------------------------------|
A|2222222222222222-5555555555555555-------------|
D|----------------------------------555-7-2-----|

G|-------------------------------------------------|
D|--------------------------77-4/5-5p4-------------|
A|2222222222222222-55555555------------5-----------|
D|---------------------------------------555-7-2---|

G|-----------------------------------------|
D|--------------------------77-4/5-5p4-----|
A|2222222222222222-55555555------------5---|
D|-----------------------------------------|

 x4
G|---------------------------------------------|
D|----5-5-5---5-5-5-------3h4p3------3h4p3-----|
A|--------------------2-2-------2-22-----------|
D|5-5-------5----------------------------------|


G|-------------|
D|----5--------|
A|--5----------|
D|5------------|

 (1.35)
G|--------------|
D|--------------|
A|----5---------|
D|5-0-----------|

 
G|----------------------------------------11------------------|
D|-----12~---------14-11-----14-11-----12-----------14-11-----|
A|8/10-------10/12--------12--------10--------10/12-----------|
D|------------------------------------------------------------|

 Pause


 x2 (1.54)
G|----------------------------------------------------------------------|
D|----------------------------------------------------------------------|
A|7777777777777777-55555555555555555-2222222222222222-0000000000000000--|
D|----------------------------------------------------------------------|

G|-----------|
D|-----------|
A|2~---------|
D|-----------|

G|----------------------------------------------------------------------|
D|----------------------------------------------------------------------|
A|2-2-2-2-2-2-2-2-5-5-5-5-5-5-5-5---------------------------------------|
D|--------------------------------7-7-7-7-7-7-7-7-7-5-5-5-5-5-5-5-5-5---|

G|-----------------------------------------------------------------------------------|
D|--------------------------77-4/5-5p4-----------------------------------------------|
A|2222222222222222-55555555------------5-(Pause)-------------------------------------|
D|-----------------------------------------------7777777777777777-55555555555555555--|

 X2
G|---------------------------------------------------------------------|
D|---------------------------------------------------------------------|
A|2222222222222222-5555555555555555------------------------------------|
D|----------------------------------7777777777777777-5555555555555555--|

G|-----------------------------------------|
D|-----------------------------------------|
A|222--222-222--222-222--2-2-2-2-2-2-2-2---|
D|-----------------------------------------|

G|---------------------------------------------------------------------|
D|---------------------------------------------------------------------|
A|2222222222222222-5555555555555555------------------------------------|
D|----------------------------------7777777777777777-5555555555555555--|

G|---------------------------------|
D|---------------------------------|
A|22-xx-22-xx-22-xx-22-xx-22-xx----|
D|---------------------------------|

G|---------|
D|---------|
A|2--------|
D|---------|


===============================================================================

-------------------------------------------------------------------------------
 7. I Am Azerrad 
-------------------------------------------------------------------------------

 x2 (0.10)
G|--------------------------------|
D|-----------------4-5--5--5--5---|
A|2-22-2--4-----------------------|
D|----------2-2-00----------------|

G|----------------9-9-9-9--------------------|
D|-----------------------------4-5--5--5--5--|
A|2-2-2-2-2-2-2-2---------5-5----------------|
D|-------------------------------------------|

G|----------------------------|
D|------------2~----5~--------|
A|----------------------------|
D|2~----5~--------------------|

G|--------------------------------------------|
D|--------------------------------------------|
A|----2--------5--------2---------------------|
D|2-0------5-4------2-0------5-45-45--4-5-7---|


 x2
G|------------------------------------|--------------------|
D|------------------------------------|2~----5~------77----|
A|------------------------------------|--------------------|
D|0000000000000000-7777777777777777---|--------------------|
 
 x1
G|------------------------------------|----------------------------------|
D|------------------------------------|----------------5-5-5-5--5--5--5--|
A|------------------------------------|2-2-2-2-2-2-2-2-------------------|
D|0000000000000000-7777777777777777---|----------------------------------|


G|----------------------------------------------|
D|------/7~--------------555-7-555-7------------|
A|2-2-2-------------------------------3-3-3-----|
D|------------5555-777-2------------------------|

 x3
G|-------------------------------------------------------------------------------------|
D|-------------------------------------------------------------------------------------|
A|2-20-2-20-2h5-20-2h5--2-20-2-20-2h5-20-2h5-------------------------------------------|
D|-------------------------------------------5-54-5-54-54-4h5-54-4h5-2-2-2-2-7-7--8-8--|

 (2.07 - 2.18)
G|---------------|
D|---------------|
A|2-2--22--------|
D|---------------|

G|4-4--44--------|
D|---------------|
A|---------------|
D|---------------|
 
 (2.20 - 2.25)
G|---------------|
D|---------------|
A|2-2--22--------|
D|---------------|

G|---------------|
D|---------------|
A|2-2-2-2-2-2----|
D|---------------|

G|------------------------------|
D|------------------------------|
A|2~----5~----------------------|
D|------------5~----7~----------|

G|-----------------------------------------------------|
D|-----------------------------------------------------|
A|2222222222222222-5555555555555555--------------------|
D|----------------------------------5----777---77-88---|

 x3
G|----------------------------------------------------------------------|
D|----------------------------------------------------------------------|
A|2222222222222222-5555555555555555-------------------------------------|
D|----------------------------------5555555555555555-7777777777777777---|

G|----------------|
D|----------------|
A|222--2/---------|
D|----------------|

===============================================================================

-------------------------------------------------------------------------------		
 8. Cows To The East, Cities To The West 
-------------------------------------------------------------------------------


 (3.08)
G|---------------------------------------|
D|---------------------------------------|
A|---------------------------------------|
D|33333333-55555555-77777777-88888888----|

G|---------------------------------|
D|---------------------------------|
A|---------------------------8~----|
D|33333333-55555555-77777777-------|

===============================================================================

-------------------------------------------------------------------------------
 9. Synthesize 
-------------------------------------------------------------------------------

 x2
G|------------------------------|
D|5-5---------------9-9-99-9----|
A|-------------/7-9-------------|
D|----0-0-00-0------------------|

 x2
G|----------------------9-9-7-7--|
D|-------------------------------|
A|-------------------------------|
D|5-5-5-5-7-7-7-7-7-7-7----------|

G|--------------------------|
D|--------------------------|
A|------------------5~------|
D|5~----0~----5~------------|

 (0.50)
G|7~----/16~-14~----------12--12--12--12---|
D|----------------16~---14--14--14--14-----|
A|-----------------------------------------|
D|-----------------------------------------|

G|-------------------------------------------------------------|
D|---------------------5-5-5-5---9-9-9-9-----------------------|
A|2-2----7-7----3-3------------------------7-7-7-7---3-3-3-3---|
D|-------------------------------------------------------------|

 
G|----------------------------------------------------------|
D|--------------------------------/4-4-4-4-4-4-4-4-5-5-5-5--|
A|----------------------------------------------------------|
D|5-5-5-5-5-5-5-5-2-2-2-2-0-0-0-0---------------------------|

G|----------------------------------------------------------|
D|----------------------------------------------------------|
A|---------------------------------2-2-2-2-2-2-2-2-3-3-3-3--|
D|5-5-5-5-5-5-5-5-2-2-2-2-0-0-0-0---------------------------|


G|-------7-----9----9----------|
D|55---5---777--777------------|
A|--------------------7-7-55---|
D|-----------------------------|

 x3
G|-----------7----------9-----9----------|
D|55555555-5---7777-777---777------------|
A|------------------------------7-7-55---|
D|---------------------------------------|

G|------------------------------------|
D|55----------------------------------|
A|------------5----------7777-9999----|
D|--55555555-5--77777777--------------|

 x3
G|------------------------------------------|
D|555555555555------------------------------|
A|-------------5----------------77777-9999--|
D|------------5--77777777777777-------------|

 x2
G|--------------------------------------------------------------|
D|--------------------------------------------------------------|
A|-----------------------------------2222222222222222-33333333--|
D|5555555555555555-22222222-00000000----------------------------|

 x2
G|-------------------------------------|
D|-------------------------------------|
A|----------3----3----2-2-2-2-0-0-0-0--|
D|2----2-------------------------------|

 (3.03)
G|12-12-12-12-9-9-7-7---------7-7------|
D|--------------------9-9-9-9-----7-7--|
A|-------------------------------------|
D|-------------------------------------|

 x2
G|-----------------------------------------------------------------------|
D|-----------------------------------------------------------------------|
A|-----------------77777777-55555555-2222222222222222-55555555-----------|
D|5555555555555555---------------------------------------------77777777--|

G|12-12-12-12-12-12--9-9-9-7-7-7---7---9---7---9---7---9---7---9-7-7-7-------|
D|-------------------------------9---9---9---9---9---9---9---9---------7-7-7-|
A|---------------------------------------------------------------------------|
D|---------------------------------------------------------------------------|

G|--------------------------------7---9---7---9---7---9---7---9-------------|
D|------------------------------9---9---9---9---9---9---9---9---------------|
A|10-10-10-10-10-10-7-7-7-5-5-5---------------------------------5-5-5-------|
D|--------------------------------------------------------------------7-7-7-|

 x2
G|----------------------------------|
D|----------------------------------|
A|----------------2~----5~----------|
D|5~----2~--0~---------------7~-----|

G|------------|
D|5~----------|
A|------------|
D|------------|

===============================================================================

-------------------------------------------------------------------------------
 10. Our First American Friends
-------------------------------------------------------------------------------

 x2 (0.10)
G|--------------------------|
D|--------------------------|
A|00-00-77-77-22-22---------|
D|------------------44-44---|

 x2
G|----------------------------------------------------|
D|-----------------/7777777777777777------------------|
A|0000000000000000-------------------22~----77~-------|
D|----------------------------------------------------|

G|-------------------------------------|
D|-------------------------------------|
A|-------------------------------------|
D|4~----2-4~----2-4~----4-2~----2-4----|

G|--------------------|
D|--------------------|
A|--------------------|
D|00000000-22222222---|

 x3
G|---------------------------------------|
D|---------------------------------------|
A|---------------------------------------|
D|55555555-7777777-2-00000000-22222222---|


 x4
G|------11/9-------------16/14-14-----|
D|-----------12-----------------------|
A|------------------------------------|
D|5~---------------5~-----------------|

 x4
G|------16/14-14----------11/9--------|
D|-----------------------------12-----|
A|------------------------------------|
D|5~----------------5~----------------|

G|-------------------------|
D|-------------------------|
A|----------5--------------|
D|2----5---------7---------|

 x3
G|---------------------------------------------------|
D|-----------------------777777----11111111111/12----|
A|-------------555555-55-----------------------------|
D|222222222-55------------------77-------------------|

G|--------------------|
D|--------------------|
A|2-2-22-4-4-44-------|
D|--------------------|

 x4
G|------------------------------|
D|------------------------------|
A|-------12/1414----------------|
D|0-0-------------7-4-4--5-4----|

 x4
G|------------------------------|
D|-----444----------------------|
A|---------------5-7-----5-7-9--|
D|2-0------5-7-8-----7-8--------|

G|11~----9~--------------------------------|
D|-----------------------------------------|
A|-------------5~----9~----7~----5~--5555--|
D|-----------------------------------------|

G|------------------------------|
D|------------------------------|
A|999999999-77777777-55555555---|
D|------------------------------|

 x4
G|--------------------------------------|
D|---------------------------55555555---|
A|55555555-33333333-77777777------------|
D|--------------------------------------|

 x4
G|------------------------------|
D|------------------------------|
A|-------12/1414----------------|
D|0-0-------------7-4-4--5-4----|


G|---------11----------------|
D|------12----14-12----------|
A|12/14-------------10~------|
D|---------------------------|

 x7
G|--------------11---------------------|
D|-----------12----14-12---------------|
A|-----12/14-------------10-12-10------|
D|12~----------------------------------|



===============================================================================

            
            
Suggest correction
Creating personal tab
Creating personal tab
You can edit any tab online and save it as your Personal.

You can edit, replace or remove any tab part or add personal notes – all changes will be seen only by you.

Personal tabs can be accessed anytime from any device, even offline.
Learn more »
Give kudos to tab author, rate the tab!
1 2 3 4 5
comments
print report bad tab
guest
You may want to rate the tab now too:
select rating
Wanna post a correction for this tab? Suggest correction