Oops, an error
Loading. Please wait.

Time After Time tab

version 2
version 2

Whole song

10,790 views 21 this week
no commentswrite comment
1 2 3 4 5
x 4
add to favorites
×
Save as Personal and add changes to this tab that will be seen only by you. Learn more ›
×
You can save this tab as Personal to edit and correct it or add notes. All changes will be seen only by you. Learn more »
launch autoscroll
font size
0
reset
how to read this tab
guitar tuner
edit
Autoscroll
slow
fast
+/-
esc
set tempo
stop
Author
Tab by: Viktor Patzauer
viktor_patzauer@hotmail.com
contact me if any problems

This version is from the Tears of Joy album.
Enjoy!

intro

E||---------------------------|---------------------------|
B||--1--------1---------------|--1--------0h1h0-----------|
G||--------0-----0------------|--------0---------0--------|
D||-----3-----------3-----2h3-|-----0---------------0-----|
A||--------------------3------|------------------------2/-|
E||--1------------------------|--3------------------------|


                                                      
--------------------------|--------------------------|
--3-----------3-----------|--1-----------------0-----|
--------0-----------0-----|--------0-----2-----------|
-----4-----4-----4-----4--|-----3-----3-----3-----3--|
--------------------------|--------------------------|
--0-----------------------|--1-----------------------|


                                                      

--3-----------------------|--3------------------------|
--1-----------1-----------|--1--------0h1h0-----------|
--------0-----------0-----|--------0---------0--------|in the last bar the bass is 
-----3-----3-----3-----3--|-----0---------------0-----|basically doing a c major scale
--------------------------|------------------------2/-|from note 8-1
--1--------1--1--------1--|--3--------3---3--------3--|


                                                      
--5-----------------------|--3-----3--3--3-----------|
--3-----------3-----------|--1h0---1--1--1-----------| 
--------0-----------0-----|--------2--0--------------|
-----4-----4-----4-----4--|----3---------3--2--0-----|
--------------------------|-----------------------3--|
--0--------0--0--------0--|--1--------1--1-----------|

Verse:
    ----------3x-------------                         
 /                           \
|-----------------------------||-----------------------3--|
|---------1--------1----------||--------1-----------1-----|
|*-----0--------0-----0------*||-----0-----------0--------|
|*--3--------2-----------0h2-*||--3--------2--------------|
|---3--------3----------------||--3--------3--3-----------|
|-----------------------------||--------------------------|


                               -----------2x--------------             
                              /.                          \
---------------------------||-----------------------------||
--------1--------1---------||---------1--------1----------||
-----0--------0-----0------||------0--------0-----0-------||
--3--------2-----------0h2-||---3--------2-----------0h2--||
--3--------3---------------||---3--------3----------------||
---------------------------||-----------------------------||


                            Bridge                          
   
--------------------------|------------------------------|
--------1-----------------|-(1)-------- --------0h1h0-----|
-----0-----------0--------|--2-----2--------0--------0---|
--3--------2-----2--------|--3-----------0---------------|
--3-----------3-----------|-----3------------------------|
--------------------0---0-|--1--------3------------------|


                                                      
--------------------------|--------------------------|
--------------------------|--1-----------3-----------|
--0-----0--2-----------0--|--2-----0--------0--2--0--|
-----4--------------3-----|-----3-----3--------------|
-----------------3--------|--------------------------|
--0-----------1-----------|--1-----------3-----------|


                                                      

--------------------------|---------------------------|
--3-----------3-----------|--1------------1-----0-----|
--------0-----------0-----|--------0------------------|
-----4-----4-----4-----4--|-----3-----2-3----0-----0--|
--------------------------|---------------------------|
--0-----------------------|--1------------3-----------|


                                                      
--------------------------|--------------------------|
--------------------------|--1-----------1-----0-----|
--0-----0--2-----------0--|--2-----0-----0-----0-----|
-----4--------------3-----|-----3-----3--------------|
-----------------3--------|--------------------------|
--0-----------1-----------|--1-----------3---3----3--|
                            
 Verse                         -----------2x--------------             
                              /.                          \                          
---------------------------||-----------------------------||
--1-----1--------1---------||---------1--------1----------||
--0--0--------0-----0------||------0--------0-----0-------||
--3--------2-----------0h2-||---3--------2-----------0h2--||
--3--------3--3------------||---3--------3--3-------------||
---------------------------||-----------------------------||


                                                      

-----------------------3--|---------------------------|
--------1-----------1-----|--------1--------1---------|
-----0-----------0--------|-----0--------0-----0------|
--3--------2--------------|--3--------2-----------0h2-|
--3--------3--3-----------|--3--------3--3------------|
--------------------------|---------------------------|

                    
  -----------2x--------------                                          
 /.                          \                                                          
|-----------------------------||--------------------------|
|---------1--------1----------||--------1-----------------|
|*-----0--------0-----0------*||-----0-----------0--------|
|*--3--------2-----------0h2-*||--3--------2-----2--------|
|---3--------3--3-------------||--3-----------3-----------|
|-----------------------------||--------------------0---0-|


  Bridge                                                    
   
------------------------------|--------------------------|
--------------------0-1h0-----|--------------------------|
--------2--------0--------0---|--0-----0--2-----------0--|
--------------0---------------|-----4--------------3-----|
-----3------------------------|-----------------3--------|
--1--------3------------------|--0--------1--1-----------|


                                                      

--------------------------|---------------------------|
--1-----------3-----------|--3-----------3------------|
--0h2---0--------0--2--0--|--------0-----------0------|
-----3-----3--------------|-----4-----4-----4-----2-3-|
--------------------------|---------------------------|
--1--------1--3--------3--|--0--------0--0--------0---|


                                                      

---------------------------|--------------------------|
--1------------1-----0-----|--3--------1-----------1--|
--------0------------------|--------0-----------------|
-----3-----2-3----0-----0--|-----2--------------3-----|
---------------------------|-----------------3--------|
--1--------1---3--------3--|--0--------1--1-----------|


Chorus                                                       
  
|--------3-----------3-----|-----------3----------------|
|--------0-----------0-----|-----------1----------------|
|*-------0-----------0-----|-----------2-----2--2h0-----|
|*--0----0-----------0-----|--2-----2---------------2---|
|---2----2--------2--------|--0--3--------0-------------|
|---3-------3--3--------3--|--------------------------0-|


                                                    
2x
--------3-----3-----3--3--|-------3-----3-----3------||
--------1-----0-----0--1--|-------1-----1-----1------||
--------2-----0-----0--0--|-------0-----0-----0-----*||
--------3-----0-----0--2--|-------2-----2-----2-----*||
-----3--------2-----2--3--|----3--3--3--3--3--3--3---||
--1--------1--3--3--------|--------------------------||


                                                      

-------3-----------3-----|-----------3----------------|
-------0-----------0-----|-----------1----------------|
-------0-----------0-----|-----------2-----2--2h0-----|
--0----0-----------0-----|--2-----2---------------2---|
--2----2--------2--------|--0--3--------0-------------|
--3-------3--3--------3--|--------------------------0-|


                                                    
--------3-----3-----3--3--|----3-------------------|
--------1-----0-----0--1--|----1----5h-3h-1--------|
--------2-----0-----0--0--|----0-------------------|
--------3-----0-----0--2--|----2----5h-3h-2--------|
-----3--------2-----2--3--|----3-------------3-----|
--1--------1--3--3--------|---------------------0--|


                                                      
 
-----------8h-7------------|-----------3h5h3-----------|
-----------------10--8-----|------------------3--------|
------------------------7--|--------4--4---------4-----|
--------3------------------|-----5------------------5/-|
-----3-----8---------------|---------------------------|
--1------------------------|--3--------3---------------|


                                                      

-----------5h-3-----------|-----0---------------------|
-----------3-----6--5--3--|--------1---------------0--|
--------0-----------------|--------------------0h2----|
-----4--------------------|-----------------3---------|
--------------------------|--------------3------------|
--0-----------0-----------|--1--------1---------------|


                                                      
 
-----------8h-7------------|-----------3h5h3-----------|
--1--------------10--8-----|------------------3--------|
------------------------7--|--------4--4---------4-----|
--------3------------------|-----5------------------5/-|
-----3-----8---------------|---------------------------|
--1------------------------|--3--------3---------------|


                                                      
-----------5h-3-----------|-----0-----------------0--|
-----------3-----6--5--3--|--------1--------1h-3-----|
--------0-----------------|--------------------------|
-----4--------------------|--------------------------|
--------------------------|--------------3-----------|
--0-----------0-----------|--1--------1--------------|


                               -----------2x--------------             
Verse                         /.                          \            
---------------------------||-----------------------------||
--1-----1--------1---------||---------1--------1----------||
--0--0--------0-----0------||*-----0--------0-----0------*||
--3--------2-----------0h2-||*--3--------2-----------0h2-*||
--3--------3--3------------||---3--------3--3-------------||
---------------------------||-----------------------------||


                                                      

-----------------------3--|---------------------------|
--------1-----------1-----|--------1--------1---------|
-----0-----------0--------|-----0--------0-----0------|
--3--------2--------------|--3--------2-----------0h2-|
--3--------3--3-----------|--3--------3--3------------|
--------------------------|---------------------------|


                                                      
    
|-----------------------------||--------------------------|
|---------1--------1----------||--------1-----------------|
|*-----0--------0-----0------*||-----0-----------0--------|
|*--3--------2-----------0h2-*||--3--------2-----2--------|
|---3--------3--3-------------||--3-----------3-----------|
|-----------------------------||--------------------0---0-|


                                                      
  Bridge 
------------------------------|--------------------------|
--------------------0h1h0-----|--------------------------|
--------2--------0--------0---|--0-----0--2-----------0--|
--------------0---------------|-----4--------------3-----|
-----3------------------------|-----------------3--------|
--1--------3------------------|--0--------1--1-----------|


                                                      

--------------------------|---------------------------|
--1-----------3-----------|--3-----------3------------|
--2-----0--------0--2--0--|--------0-----------0------|
-----3-----3--------------|-----4-----4-----4-----2-3-|
--------------------------|---------------------------|
--1--------1--3--------3--|--0--------0--0--------0---|


                                                      

---------------------------|--------------------------|
--1------------1-----0-----|--3--------1-----------1--|
--------0------------------|--------0-----------------|
-----3-----2-3----0-----0--|-----2--------------3-----|
---------------------------|-----------------3--------|
--1--------1---3--------3--|--0--------1--1-----------|


  Chorus                                           
  
|--------3-----------3-----|-----------3----------------|
|--------0-----------0-----|-----------1----------------|
|*-------0-----------0-----|-----------2-----2--2h0-----|
|*--0----0-----------0-----|--2-----2---------------2---|
|---2----2--------2--------|--0--3--------0-------------|
|---3-------3--3--------3--|--------------------------0-|


                                                    
2x
--------3-----3-----3--3--|-------3-----3-----3------||
--------1-----0-----0--1--|-------1-----1-----1------||
--------2-----0-----0--0--|-------0-----0-----0-----*||
--------3-----0-----0--2--|-------2-----2-----2-----*||
-----3--------2-----2--3--|----3--3--3--3--3--3--3---||
--1--------1--3--3--------|--------------------------||


                                                      

-------3-----------3-----|-----------3----------------|
-------0-----------0-----|-----------1----------------|
-------0-----------0-----|-----------2-----2--2h0-----|
--0----0-----------0-----|--2-----2---------------2---|
--2----2--------2--------|--0--3--------0-------------|
--3-------3--3--------3--|--------------------------0-|


                                                     
--------3-----3-----3--3--|----3--3--3--3--3--3--3--|
--------1-----0-----0--1--|----1--1--1--1--1--1--0--|
--------2-----0-----0--0--|----0--0--0--0--0--0--0--|
--------3-----0-----0--2--|----2--2--2--2--2--2--0--|
-----3--------2-----2--3--|----3--3--3--3--3--3--2--|
--1--------1--3--3--------|----------------------3--|


                                                      

-------3-----------3-----|-----------3----------------|
-------0-----------0-----|-----------1----------------|
-------0-----------0-----|-----------2-----2--2h0-----|
-------0-----------0-----|--2-----2---------------2---|
-------2--------2--------|--0--3--------0-------------|
----3-----3--3--------3--|--------------------------0-|


                                                     
--------3-----3-----3--3--|----3--3--3--3--3--3--3--|
--------1-----1-----0--1--|----1--1--1--1--1--1--0--|
--------2-----0-----0--0--|----0--0--0--0--0--0--0--|
--------3-----0-----0--2--|----2--2--2--2--2--2--0--|
-----3--------2-----2--3--|----3--3--3--3--3--3--2--|
--1--------1--3--3--------|----------------------3--|


                                                    
-------3-----------3--3--|--3--3-------------3-----|
-------0-----------0--0--|--1--0-------------1-----|
-------0-----------0--0--|--2--2--2----------2-----|
-------0-----------0--0--|--------2--2-------2-----|
-------2--------2-----2--|--------0--0----0--------|
----3-----3--3--------3--|----------------------0--|


                                                     
--------3-----3-----3--3--|----3--------------------|
--------1-----1-----0--1--|----1-----5h-3--1--------|
--------2-----0-----0--0--|----0--------------------|
--------3-----0-----0--2--|----2-----5h-3--2--------|
-----3--------2-----2--3--|----3--3-----------3-----|
--1--------1--3--3--------|----------------------0--|


   Bridge                                                   
   
------------------------------|--------------------------|
--------------------0h1h0-----|--------------------------|
--------2--------0--------0---|--0-----0--2-----------0--|
--------------0---------------|-----4--------------3-----|
-----3------------------------|-----------------3--------|
--1--------3------------------|--0--------1--1-----------|


                                                      

--------------------------|---------------------------|
--1-----------3-----------|--3-----------3------------|
--2-----0--------0--2--0--|--------0-----------0------|
-----3-----3--------------|-----4-----4-----4-----2-3-|
--------------------------|---------------------------|
--1--------1--3--------3--|--0--------0--0--------0---|


                                                      

---------------------------|--------------------------|
--1------------1-----0-----|--3--------1-----------1--|
--------0------------------|--------0-----------------|
-----3-----2-3----0-----0--|-----2--------------3-----|
---------------------------|-----------------3--------|
--1--------1---3--------3--|--0--------1--1-----------|

Chorus
                                                      
  
|--------3-----------3-----|-----------3----------------|
|--------0-----------0-----|-----------1----------------|
|*-------0-----------0-----|-----------2-----2--2h0-----|
|*--0----0-----------0-----|--2-----2---------------2---|
|---2----2--------2--------|--0--3--------0-------------|
|---3-------3--3--------3--|--------------------------0-|


                                                    
2x
--------3-----3-----3--3--|-------3-----3-----3------||
--------1-----0-----0--1--|-------1-----1-----1------||
--------2-----0-----0--0--|-------0-----0-----0-----*||
--------3-----0-----0--2--|-------2-----2-----2-----*||
-----3--------2-----2--3--|----3--3--3--3--3--3--3---||
--1--------1--3--3--------|--------------------------||


                                                     
-------3-----------3-----|--------3--------3-----3--|
-------0-----------0-----|--------1--------1-----1--|
-------0-----------0-----|-----2--2--------2-----2--|
--0----0-----------0-----|--2--2--------------------|
--2----2--------2--------|--0--------2--2-----3-----|
--3-------3--3--------3--|--------------------------|


                                                     
--------3-----3-----3--3--|-------3-----3-----3-----|
--------1-----0-----0--1--|-------1-----1-----1-----|
--------2-----0-----0--0--|-------0-----0-----0-----|
--------3-----0-----0--2--|-------2-----2-----2-----|
-----3--------2-----2--3--|----3--3--3--3--3--3--3--|
--1--------1--3--3--------|-------------------------|


                                                      
 
|---------------------------|--------------------------|
|---------1-----1-----0--1--|--------1-----------1-----|
|*--------2-----0-----0--0--|--------0-----------0-----|
|*--------3-----0-----0--2--|-----2-----------2--------|
|------3-----------------3--|--3--------3--0--------0--|
|---1--------1--3--3--------|--------------------------|


                                                     
3x
--------0-----0--------0--|--------0-----------0------||
--------1-----1-----3--1--|--------1-----------1------||
--------2-----0-----0--0--|--------0-----------0-----*||
--------------------0-----|-----2-----------2--------*||
-----3-----------------3--|--3--------3--0--------0---||
--1--------1--3--3--------|---------------------------||


            
            
Suggest correction
Creating personal tab
Creating personal tab
You can edit any tab online and save it as your Personal.

You can edit, replace or remove any tab part or add personal notes – all changes will be seen only by you.

Personal tabs can be accessed anytime from any device, even offline.
Learn more »
comments
print report bad tab
guest
You may want to rate the tab now too:
select rating
Wanna post a correction for this tab? Suggest correction