Oops, an error
Loading. Please wait.

20-10 Tennessee Acoustic chords

version 2
version 2

Whole song

  • This tab integrates the intro riff with the chords... Show more
340 views 21 this week
5 commentsread comments
1 2 3 4 5
2 more votes to show rating
add to favorites
×
Save as Personal and add changes to this tab that will be seen only by you. Learn more ›
×
You can save this tab as Personal to edit and correct it or add notes. All changes will be seen only by you. Learn more »
launch autoscroll
font size
0
reset
transpose
0
reset
display chords
guitar tuner
edit
Autoscroll
slow
fast
+/-
esc
set tempo
stop
About this tab version
This tab integrates the intro riff with the chords to sound more like the version Tucker recorded. Was this info helpful? Yes No
Strumming
There is no strumming pattern for this song yet. and get +5 IQ
Tucker Beathard 
20-10 Tennessee 
Standard Tuning 
Capo 2
Tab relative to capo, referring to https://www.youtube.com/watch?v=SDM5ehYOq8o

[Introduction]
e|---------------------------------------------------------|
b|---------------------------------------------------------|
g|---------------------------------------------------------| x2
d|--2h4p2p0---------0---0---------0---0--------0----0----0-|
a|-----------0h2--2---2----2--2/4---4---4--4p0-------------|
E|------------------------------------------------0---0----|

e|------------------|
b|------------------|
g|------------------|
d|--4-4h5p4-4/2-p0--|
a|------------------|
E|------------------|

[Verse]
      E                      E 
e|-----------------------|-----------------------|
b|-----------------------|-----------------------|
g|-----------------------|-----------------------|
d|--4h5/7----7---7----7--|--4h5/7-5p4--4h5p4-----| x2
a|---------0---0---0-----|-----------------------|
E|-----------------------|-----------------------|

      B                      E 
e|----------------------------------------------|
b|----------------------------------------------|
g|----------------------------------------------|
d|------0------0-------0-----0-----0------------| (Also play this riff in line 6 of chorus 1 and line 4 of 
a|--0h2---2/4-----4p0-----0-----0---------------|  chorus 2)
E|----------------------------------------------|

                A               B                 E 
e|------------------------------------------------------------|
b|------------------------------------------------------------|
g|------------------------------------------------------------| x2
d|--2h4p2p0------0---0---0---------0---0--------0----0----0---| (Also play this riff beginning in line 7 in
a|-----------0h2---2---2----2--2/4---4---4--4p0---0----0------|  chorus 1, and line 5 of chorus 2)
E|------------------------------------------------------------|

****************

h = hammer-on
p = pull-off
/ = slide up

****************

[Verse 1]
 E 
Hey it's me
 E 
I'm just wondering where you are?
 E 
I woke up late
                              A 
I think the game's about to start
 B                   E 
You know where I'll be
                      A     B        E 
Just sitting here at home, let's go Tennessee

[Verse 2]
 E 
It's me again
 E 
You won't believe what just went down
 E                               A 
3rd and goal, fake reverse and around
      B          E 
Even fooled the referee
                     A           B     E 
Just had to let you know, it's  7-zip Tennessee

[Chorus 1] 
 A                              A                         D 
And by the way I meant to say, that I'm sorry 'bout last night
                            B                       E
I didn't mean to make you cry, Did you really mean goodbye?
 A 
I swear to God I'm going to change
 A                          D
Turn this fool I've been around
 D                           E                               A 
Yeah I believe in miracles, cause hell I'm watching one right now
     B               E 
And girl you won't believe
                  A 
It's going into half
 B           E 
10-nothing Tennessee

[Verse 3]
 E 
We scored again
 E 
That's all I called again to say
 E                                              A 
It got real close, But just like you we pulled away
 B             E 
Almost out of reach
                   A 
But it ain't over yet
     B         E 
Now hold on Tennessee

[Chorus 2] 
 A 
I swear to God I'm going to change
 A                        D
Turn this fool I've been around
 D                             E                               A 
Yeah I believe in miracles, cause hell I'm watching one right now
     B               E 
And girl you won't believe
           A 
2 minutes left 
 B       E 
Lets go Tennessee

[Outro]
 E 
It should have been 
 E 
Another best day of my life
 B                                        A 
But girl I feel, kinda like that Crimson Tide
      B                  E 
With time running out on me
                   A 
With no Hail Mary chance
 B        E 
20-10 Tennessee 


            
            
Suggest correction
Creating personal tab
Creating personal tab
You can edit any tab online and save it as your Personal.

You can edit, replace or remove any tab part or add personal notes – all changes will be seen only by you.

Personal tabs can be accessed anytime from any device, even offline.
Learn more »
Give kudos to tab author, rate the tab!
1 2 3 4 5
comments
print report bad tab
5 comments total. Showing first comments.
-1 reply
hunterkelso201 10 Mar 14, 2017 03:22 PM

good try buddy but this tab is garbage

-1 reply
katlynbuchman 149 Mar 14, 2017 08:36 PM

Not sure what you mean, if you view the video I'm referencing this is tabbed exactly how Tucker plays it.

-1 reply
hunterkelso201 10 Mar 17, 2017 03:27 PM

have you even played it in person on ur own its not even close

guest
You may want to rate the tab now too:
select rating
Wanna post a correction for this tab? Suggest correction