Oops, an error
Loading. Please wait.

Silver Lizard tab

46 views 3 this week
2 commentsread comments
1 2 3 4 5
2 more votes to show rating
add to favorites
×
Save as Personal and add changes to this tab that will be seen only by you. Learn more ›
×
You can save this tab as Personal to edit and correct it or add notes. All changes will be seen only by you. Learn more »
launch autoscroll
font size
0
reset
how to read this tab
guitar tuner
edit
Autoscroll
slow
fast
+/-
esc
set tempo
stop
Author
Difficulty
About this tab version
This is off the album "Return To Earth" and it uses distortion and modulation pedals. Was this info helpful? Yes No
[Verse 1]
Distorted with modulation
(Listen to the song for the rhythm)
e|----------------------|----------------------|----------------------|----------------------|
B|----------------------|----------------------|----------------------|----------------------|
G|----------------------|----------------------|---10--10--10--10-----|----10--7--7--7-------|
D|-----7--7--7--7-------|-----5--5--5--5-------|---10--10--10--10-----|----10--7--7--7-------| Repeat x8 
A|-----7--7--7--7-------|-----5--5--5--5-------|---8---8---8---8------|----8---5--5--5-------|
E|-----5--5--5--5-------|-----3--3--3--3-------|----------------------|----------------------|

PM     .  .  .  .             .  .  .  .           .   .   .   .           .   .  .  .

[Chorus]
e|----------------------|----------------------|----------------------|----------------------|
B|----------------------|----------------------|----------------------|----------------------|
G|----------------------|----------------------|----------------------|----------------------|
D|-----8/-10--10--12----|----12--x--x--12--12--|---8/-10--10--12------|----12--x--x--12--12--| Repeat x4
A|-----8/-10--10--12----|----12--x--x--12--12--|---8/-10--10--10------|----10--x--x--12--12--|
E|-----6/-8---8---10----|----10--x--x--10--10--|---6/--8---8--10------|----10--x--x--10--10--|

[Post-Chorus]
e|----------------------|
B|----------------------|
G|----------------------|
D|----8/--10--10/--12---|
A|----8/--10--10/--12---|
E|----6/--8---8-/--10---|

[Verse 2]
e|----------------------|----------------------|----------------------|----------------------|
B|----------------------|----------------------|----------------------|----------------------|
G|----------------------|----------------------|---10--10--10--10-----|----10--7--7--7-------|
D|-----7--7--7--7-------|-----5--5--5--5-------|---10--10--10--10-----|----10--7--7--7-------| Repeat x2 
A|-----7--7--7--7-------|-----5--5--5--5-------|---8---8---8---8------|----8---5--5--5-------|
E|-----5--5--5--5-------|-----3--3--3--3-------|----------------------|----------------------|

PM     .  .  .  .             .  .  .  .           .   .   .   .           .   .  .  .

[Chorus]
e|----------------------|----------------------|----------------------|----------------------|
B|----------------------|----------------------|----------------------|----------------------|
G|----------------------|----------------------|----------------------|----------------------|
D|-----8/-10--10--12----|----12--x--x--12--12--|---8/-10--10--12------|----12--x--x--12--12--| Repeat x4
A|-----8/-10--10--12----|----12--x--x--12--12--|---8/-10--10--10------|----10--x--x--12--12--|
E|-----6/-8---8---10----|----10--x--x--10--10--|---6/--8---8--10------|----10--x--x--10--10--|

[Hook phrase]
e|----------------------|----------------------|------------------------|----------------------|
B|----------------------|----------------------|------------------------|----------------------|
G|----------------------|----------------------|------------------------|----------------------|
D|-/12-12-x-x-15-15-x-x-|---12\--10--10--10----|--8-8-x-x--12-12\--5----|-/12-12-x-x-15-x-x----|
A|-/12-12-x-x-15-15-x-x-|---12\--10--10--10----|--8-8-x-x--12-12\--5----|-/12-12-x-x-15-x-x----|
E|-/10-10-x-x-13-13-x-x-|---10\--8---8---8-----|--6-6-x-x--10-10\--3-5-7|-/10-10-x-x-13-x-x----|

e|----------------------|----------------------|------------------------|
B|----------------------|----------------------|------------------------|
G|----------------------|----------------------|------------------------|
D|-/12-12-x-x-15-15-x-x-|---12\--10--10--10----|--8-8-x-x--12-12\--5----|
A|-/12-12-x-x-15-15-x-x-|---12\--10--10--10----|--8-8-x-x--12-12\--5----|
E|-/10-10-x-x-13-13-x-x-|---10\--8---8---8-----|--6-6-x-x--10-10\--3-5-7|

e|----------------------|------------------------|----------------------|----------------------|
B|----------------------|------------------------|----------------------|----------------------|
G|----------------------|------------------------|----------------------|----------------------|
D|---------12b-13r-12\--|-5-----------14b-15r-14-|-7---------14b-15r-14-|--7-------------------|
A|---------12b-13r-12\--|-5-----------14b-15r-14-|-7---------14b-15r-14-|--7-------------------|
E|-3--5--7-10b-11r-10\--|-3--3--5--7--12b-13r-12-|-5--5-7-9--12b-13r-12-|--5---5---7---9-------|

[Verse 3]
e|----------------------|----------------------|----------------------|----------------------|
B|----------------------|----------------------|----------------------|----------------------|
G|----------------------|----------------------|---10--10--10--10-----|----10--7--7--7-------|
D|-----7--7--7--7-------|-----5--5--5--5-------|---10--10--10--10-----|----10--7--7--7-------| Repeat x8 
A|-----7--7--7--7-------|-----5--5--5--5-------|---8---8---8---8------|----8---5--5--5-------|
E|-----5--5--5--5-------|-----3--3--3--3-------|----------------------|----------------------|

PM     .  .  .  .             .  .  .  .           .   .   .   .           .   .  .  .

[Chorus]
e|----------------------|----------------------|----------------------|----------------------|
B|----------------------|----------------------|----------------------|----------------------|
G|----------------------|----------------------|----------------------|----------------------|
D|-----8/-10--10--12----|----12--x--x--12--12--|---8/-10--10--12------|----12--x--x--12--12--| Repeat x2
A|-----8/-10--10--12----|----12--x--x--12--12--|---8/-10--10--10------|----10--x--x--12--12--|
E|-----6/-8---8---10----|----10--x--x--10--10--|---6/--8---8--10------|----10--x--x--10--10--|

[Hook phrase/outro]
e|----------------------|----------------------|------------------------|----------------------|
B|----------------------|----------------------|------------------------|----------------------|
G|----------------------|----------------------|------------------------|----------------------|
D|-/12-12-x-x-15-15-x-x-|---12\--10--10--10----|--8-8-x-x--12-12\--5----|-/12-12-x-x-15-x-x----|
A|-/12-12-x-x-15-15-x-x-|---12\--10--10--10----|--8-8-x-x--12-12\--5----|-/12-12-x-x-15-x-x----|
E|-/10-10-x-x-13-13-x-x-|---10\--8---8---8-----|--6-6-x-x--10-10\--3-5-7|-/10-10-x-x-13-x-x----|

e|----------------------|----------------------|------------------------|----------------------|
B|----------------------|----------------------|------------------------|----------------------|
G|----------------------|----------------------|------------------------|----------------------|
D|-/12-12-x-x-15-15-x-x-|---12\--10--10--10----|--8-8-x-x--12-12\--5----|-/12-12-x-x-15-x-x----|
A|-/12-12-x-x-15-15-x-x-|---12\--10--10--10----|--8-8-x-x--12-12\--5----|-/12-12-x-x-15-x-x----|
E|-/10-10-x-x-13-13-x-x-|---10\--8---8---8-----|--6-6-x-x--10-10\--3-5-7|-/10-10-x-x-13-x-x----|

e|----------------------|----------------------|------------------------|----------------------|
B|----------------------|----------------------|------------------------|----------------------|
G|----------------------|----------------------|------------------------|----------------------|
D|-/12-12-x-x-15-15-x-x-|---12\--10--10--10----|--8-8-x-x--12-12\--5----|-/12-12-x-x-15-x-x----|
A|-/12-12-x-x-15-15-x-x-|---12\--10--10--10----|--8-8-x-x--12-12\--5----|-/12-12-x-x-15-x-x----|
E|-/10-10-x-x-13-13-x-x-|---10\--8---8---8-----|--6-6-x-x--10-10\--3-5-7|-/10-10-x-x-13-x-x----|

e|----------------------|------------------------|----------------------|----------------------|
B|----------------------|------------------------|----------------------|----------------------|
G|----------------------|------------------------|----------------------|----------------------|
D|---------12b-13r-12\--|-5-----------12b-13r-14-|-5---------12b-13r-12-|--5-------------------|
A|---------12b-13r-12\--|-5-----------12b-13r-14-|-5---------12b-13r-12-|--5-------------------|
E|-3--5--7-10b-11r-10\--|-3--3--5--7--10b-11r-12-|-3--3-5-7--10b-11r-10-|--3-------------------|



************************************

PM = Palm mute
/ = Slide up
\ = Slide down
x = Dead note
b = Bend
r = Return bend

************************************

            
            
Suggest correction
Creating personal tab
Creating personal tab
You can edit any tab online and save it as your Personal.

You can edit, replace or remove any tab part or add personal notes – all changes will be seen only by you.

Personal tabs can be accessed anytime from any device, even offline.
Learn more »
Give kudos to tab author, rate the tab!
1 2 3 4 5
comments
print report bad tab
2 comments total.
+1 reply
benscarnon 10 Jul 22, 2017 06:21 AM

go the weed

0 reply
kbaines 35 Jul 23, 2017 01:35 AM

Hell yeah! XD

guest
You may want to rate the tab now too:
select rating
Wanna post a correction for this tab? Suggest correction