Oops, an error
Loading. Please wait.

Rabbits Foot bass

499 views 1 this week
no commentswrite comment
1 2 3 4 5
2 more votes to show rating
add to favorites
×
Save as Personal and add changes to this tab that will be seen only by you. Learn more ›
×
You can save this tab as Personal to edit and correct it or add notes. All changes will be seen only by you. Learn more »
launch autoscroll
font size
0
reset
guitar tuner
edit
Autoscroll
slow
fast
+/-
esc
set tempo
stop
I heard this song recently and fell in love with it and the band.  When I saw there weren't any tabs, I realized
I had to do it the old fashioned way and make one myself. 

-Intro-

It starts out with them making noise on their instruments (I guess all songs do that technically but you know 
what I mean), I honestly can't tell what notes they're playing but it just sounds like their sliding up and down
so go with that.

G|-------------------------------|
D|-------------------------------|
A|-------------------------------| x1
D|0--0--0--0--0--0--0--0---------| 

G|--------------------------------|
D|--------------------------------|
A|--------------------------------| x3
D|0--0--0--0-12-0--0-(10)(10)--10-| 

-1st Verse-

G|--------------------------------|
D|--------------------------------|
A|--------------------------------| x3
D|0--0--0--0-12-0--0-(10)(10)--10-|


G|----------------------|
D|----------------------|
A|----------------------| x1
D|0--0--0--0-12-0--0-10-|


-1st Chorus-

G|------------------|
D|------------------|
A|-(8h7)(8h7)3--8-8-| x2
D|0------------0----|

G|-------------------|
D|-------------------|
A|-(7h5)(7h5)3--7-7--| x1
D|0------------0-----|

G|---------------------|
D|---------------------|
A|-(7h5)(7h5)3-----3-5-| x1
D|0------------3-5-----|

Play this part twice, then go immediately into the second verse (which, incidentally, is same as the first)


-2nd Verse-

G|--------------------------------|
D|--------------------------------|
A|--------------------------------| x3
D|0--0--0--0-12-0--0-(10)(10)--10-|


G|----------------------|
D|----------------------|
A|----------------------| x1
D|0--0--0--0-12-0--0-10-|


If'n you want to do that cool fill that the guitar does during the second verse (I'm not sure if the bass is 
actually doing it but I sure as hell do), it's the same thing as the end of the chorus, done a bit faster:

G|--------------------------------|
D|--------------------------------|
A|-----------------------------35-| 
D|0--0--0--0-12-0--0-(10)(10)35---|


-2nd Chorus- (Identical to the first)

G|------------------|
D|------------------|
A|-(8h7)(8h7)3--8-8-| x2
D|0------------0----|

G|-------------------|
D|-------------------|
A|-(7h5)(7h5)3---7-7-| x1
D|0------------0-----|

G|---------------------|
D|---------------------|
A|-(7h5)(7h5)3-----3-5-| x1
D|0------------3-5-----|

Play twice again.


-3rd Verse/bridge-
G|----------------------|
D|----------------------|
A|----------------------| x3
D|0--0--0--0------0--0--| 

G|----------------------|
D|--------------------3-|
A|----------------3-5---| x1
D|0--0--0--0------------| 

G|-------------------------------|                       
D|-------------------------------|                           
A|-------------------------------| x4                       
D|0--0--0--0---10-10----10-10-10-|                   

Alternatively, it sounds like on some of this part, on the last note she goes up to the 12th fret instead:

G|-------------------------------|
D|-------------------------------|
A|-------------------------------| 
D|0--0--0--0--1-0-10----10-10-12-|

Use it at your leisure.


G|----------------|
D|----------------|
A|----------------| x3
D|8-8-8-8-7-7-7-7-|


Break it down drums!!!


D|---------------------------------|
G|---------------------------------|
A|---------------------------------| 
D|------------------------------10-|


-3rd Chorus-

G|------------------|
D|------------------|
A|-(8h7)(8h7)3--8-8-| x2
D|0------------0----|

G|-------------------|
D|-------------------|
A|-(7h5)(7h5)3---7-7-| x1
D|0------------0-----|

G|---------------------|
D|---------------------|
A|-(7h5)(7h5)3-----3-5-| x1
D|0------------3-5-----|

G|------------------|
D|------------------|
A|-(8h7)(8h7)3--8-8-| x2
D|0------------0----|

G|-------------------|
D|-------------------|
A|-(7h5)(7h5)3---7-7-| x1
D|0------------0-----|

G|-------------------|
D|-------------------|
A|-(7h5)(7h5)3-------| x1
D|0------------5~~3~~|


-Outro-
G|---------------------|
D|-------------7-------|
A|-(8h7)(8h7)5---5-7-5-| x1
D|0--------------------|

G|-----------------------|
D|-------------7---2-----|
A|-(8h7)(8h7)5---3---3---| x1
D|0----------------------|

G|---------------------|
D|-------------7-------|
A|-(8h7)(8h7)5---5-7-5-| x1
D|0--------------------|

G|-------------------|
D|-------------------|
A|-(8h7)(8h7)5-------| x1
D|0------------5~~3~~|

Play this twice, ending on a nice resounding open D.

Not too terribly hard once you get the hang of the timing.  The outro is particularly tricky, and I'm not 
actually sure if I got it right, feel free to correct me.

            
            
Suggest correction
Creating personal tab
Creating personal tab
You can edit any tab online and save it as your Personal.

You can edit, replace or remove any tab part or add personal notes – all changes will be seen only by you.

Personal tabs can be accessed anytime from any device, even offline.
Learn more »
Give kudos to tab author, rate the tab!
1 2 3 4 5
comments
print report bad tab
guest
You may want to rate the tab now too:
select rating
Wanna post a correction for this tab? Suggest correction