Oops, an error
Loading. Please wait.

Cutting My Fingers Off tab

version 1
version 1

Whole song

23,764 views 261 this week
10 commentsread comments
1 2 3 4 5
x 13
add to favorites
×
Save as Personal and add changes to this tab that will be seen only by you. Learn more ›
×
You can save this tab as Personal to edit and correct it or add notes. All changes will be seen only by you. Learn more »
launch autoscroll
font size
0
reset
how to read this tab
guitar tuner
edit
Autoscroll
slow
fast
+/-
esc
set tempo
stop
CAPO VERSION IS FIRST, CAPO-LESS VERSION IS SECOND 


CAPO ON FRET 5


[0:00 - 1:39]

GUITAR 1 (Comes in at 0:20)

E|-----------------------------------|
B|-----------------------------------|   x 26
G|----------0---------0---------0----|
D|------0---------0---------0--------|   This riff is played continuously
A|--3-3---3---3-3---3---3-3---3---3--|   from 0:20 - 1:39
E|-----------------------------------|


GUITAR 2 (Comes in at 0:26)

E|------------------------------------|------------------------------------|
B|------------------------------------|------------------------------------|
G|------------------------------------|------------------------------------|
D|------------0~----------------------|------------0~----------------------|
A|--0~-------------2~---0~------------|--0~-------------2~---0~------------|
E|-------0~------------------0~---3~--|-------0~------------------0~---3~--|
 |
 |
E|-----------------7-------------------|-----------------7----------------|
B|------8---10p8-------8-----10p8---8--|------8---10p8-------8---------8--|
G|--7-7---7------7---------7------7----|--7-7---7------7---------7-7h9----|
D|-------------------------------------|----------------------------------|
A|-------------------------------------|----------------------------------|
E|-------------------------------------|----------------------------------|
 |
 |
E|-----------------7-------------------|-----------------7---------------------|
B|------8---10p8-------8-----10p8---8--|------8---10p8-------8---------8-------|
G|--7-7---7------7---------7------7----|--7-7---7------7---------7-7h9-----7~--|
D|-------------------------------------|---------------------------------------|
A|-------------------------------------|---------------------------------------|
E|-------------------------------------|---------------------------------------|
 |
 |
 | (Bass and GUITAR 1 play, then GUITAR 2 comes back in at 1:17)
 |
 |
E|-----------------7-------------------|-----------------7----------------|
B|------8---10p8-------8-----10p8---8--|------8---10p8-------8---------8--|
G|--7-7---7------7---------7------7----|--7-7---7------7---------7-7h9----|
D|-------------------------------------|----------------------------------|
A|-------------------------------------|----------------------------------|
E|-------------------------------------|----------------------------------|
 |
 |
E|-----------------7-------------------|-----------------7---------------------|
B|------8---10p8-------8-----10p8---8--|------8---10p8-------8---------8-------|
G|--7-7---7------7---------7------7----|--7-7---7------7---------7-7h9-----7~--|
D|-------------------------------------|---------------------------------------|
A|-------------------------------------|---------------------------------------|
E|-------------------------------------|---------------------------------------|


[1:39 - 2:04]

GUITAR 1

E|-------------------------------------------------------------------|
B|--3-3-3-3-3-3-3-3-3-3-3-3-3-3-3-3-3-3-3-3-3-3-3-3-3-3-3-3-3-3-3-3--|   x 4
G|--0-0-0-0-0-0-0-0-0-0-0-0-0-0-0-0-0-0-0-0-0-0-0-0-0-0-0-0-0-0-0-0--|
D|--2-2-2-2-2-2-2-2-0-0-0-0-0-0-0-0-0-0-0-0-0-0-0-0-0-0-0-0-0-0-0-0--|
A|----------------------------------2-2-2-2-2-2-2-2-0-0-0-0-0-0-0-0--|
E|-------------------------------------------------------------------|


GUITAR 2 (Comes in at 1:45)

E|--------------------------------------------------0-0-0-0-----------------------------------------|
B|-3-3-3-3-3-3-3-3-3-3-3-3-3-3-3-3-3-3-3-3-3-3-3-3----------3-3-3-3-0-0-0-0-0-0-0-0-0-0-0-0-0-0-0-0-|
G|--------------------------------------------------------------------------------------------------|
D|--------------------------------------------------------------------------------------------------|
A|--------------------------------------------------------------------------------------------------|
E|--------------------------------------------------------------------------------------------------|
 |
 |
E|-----------------------------------------------------------------------------------|
B|------------------1-1-1-1-0-0-0-0--------------------------------------------------|
G|--2-2-2-2-2-2-2-2-----------------0-0-0-0-0-0-0-0-0-0-0-0-0-0-0-0-2-2-2-2-2-2-2-2--|
D|-----------------------------------------------------------------------------------|
A|-----------------------------------------------------------------------------------|
E|-----------------------------------------------------------------------------------|
 |
 |
E|----------------------|
B|--3-3-3-3-0-0-0-0-----|
G|------------------0~--|
D|----------------------|
A|----------------------|
E|----------------------|


[2:04 - 3:05]

GUITAR 1

E|------------------------------------|------------------------------------|
B|--3-3-3333-3-333333-3-3333-3-33333--|--3-3-3333-3-333333-3-3333-3-33333--|
G|--0-0-0000-0-000000-0-0000-0-00000--|--0-0-0000-0-000000-0-0000-0-00000--|
D|--2-2-2222-2-222200-0-0000-0-00000--|--2-2-2222-2-222200-0-0000-0-00000--|
A|-----------------02-2-2220-0-00000--|-----------------02-2-2220-0-00000--|
E|------------------------------------|------------------------------------|
 |
 |
E|-------------------------------------------------------------------|
B|--3-3-3-3-3-3-3-3-3-3-3-3-3-3-3-3-3-3-3-3-3-3-3-3-3-3-3-3-3-3-3-3--|
G|--0-0-0-0-0-0-0-0-0-0-0-0-0-0-0-0-0-0-0-0-0-0-0-0-0-0-0-0-0-0-0-0--|
D|--2-2-2-2-2-2-2-2-2-2-2-2-2-2-2-0-0-0-0-0-0-0-0-0-0-0-0-0-0-0-0-0--|
A|--------------------------------0-2-2-2-2-2-2-2-2-0-0-0-0-0-0-0-0--|
E|-------------------------------------------------------------------|
 |
 |
E|-------------------------------------------------------------------|
B|--3-3-3-3-3-3-3-3-3-3-3-3-3-3-3-3-3-3-3-3-3-3-3-3-3-3-3-3-3-3-3-3--|
G|--0-0-0-0-0-0-0-0-0-0-0-0-0-0-0-0-0-0-0-0-0-0-0-0-0-0-0-0-0-0-0-0--|
D|--2-2-2-2-2-2-2-2-2-2-2-2-2-2-2-0-0-0-0-0-0-0-0-0-0-0-0-0-0-0-0-0--|
A|--------------------------------0-2-2-2-2-2-2-2-2-0-0-0-0-0-0-0-0--|
E|-------------------------------------------------------------------|
 |
 |
E|------------------------------------|----------------------------------|
B|--3-33-33-33-333333-33-33-33-33333--|--3-33-33-33-333333-33-33-33-333--|
G|--0-00-00-00-000000-00-00-00-00000--|--0-00-00-00-000000-00-00-00-000--|
D|--2-22-22-22-222200-00-00-00-00000--|--2-22-22-22-222200-00-00-00-000--|
A|-----------------02-22-20-00-00000--|-----------------02-22-20-00-000--|
E|------------------------------------|----------------------------------|
 |
 |
E|---------------------------------------------------------------|
B|--3-3-3-3-3-3-3-3-3-3-3-3-3-3-3-3-3-3-3-3-3-3-3-3-3-3-3-3-3-3--|
G|--0-0-0-0-0-0-0-0-0-0-0-0-0-0-0-0-0-0-0-0-0-0-0-0-0-0-0-0-0-0--|
D|--2-2-2-2-2-2-2-2-2-2-2-2-2-2-2-2-0-0-0-0-0-0-0-0-0-0-0-0-0-0--|
A|----------------------------------2-2-2-2-2-2-2-2-0-0-0-0-0-0--|
E|---------------------------------------------------------------|
 |
 |
E|-------------------------------------------------------------------|
B|--3-3-3-3-3-3-3-3-3-3-3-3-3-3-3-3-3-3-3-3-3-3-3-3-3-3-3-3-3-3-3-3--|
G|--0-0-0-0-0-0-0-0-0-0-0-0-0-0-0-0-0-0-0-0-0-0-0-0-0-0-0-0-0-0-0-0--|
D|--2-2-2-2-2-2-2-2-2-2-2-2-2-2-2-2-0-0-0-0-0-0-0-0-0-0-0-0-0-0-0-0--|
A|----------------------------------2-2-2-2-2-2-2-2-0-0-0-0-0-0-0-0--|
E|-------------------------------------------------------------------|
 |
 |
E|---------------------------------------------------------------|
B|--3-3-3-3-3-3-3-3-3-3-3-3-3-3-3-3-3-3-3-3-3-3-3-3-3-3-3-3-3-3--|
G|--0-0-0-0-0-0-0-0-0-0-0-0-0-0-0-0-0-0-0-0-0-0-0-0-0-0-0-0-0-0--|
D|--2-2-2-2-2-2-2-2-2-2-2-2-2-2-2-2-0-0-0-0-0-0-0-0-0-0-0-0-0-0--|
A|----------------------------------2-2-2-2-2-2-2-2-0-0-0-0-0-0--|
E|---------------------------------------------------------------|
 |
 |
E|------------------------------------|------|
B|--3-33-33-33-333333-33-33-33-33333--|--3~--|
G|--0-00-00-00-000000-00-00-00-00000--|--0~--|
D|--2-22-22-22-222200-00-00-00-00000--|--2~--|
A|-----------------02-22-20-00-00000--|------|
E|------------------------------------|------|


GUITAR 2 (Comes in at 2:16)

E|-----------------7-------------------|-----------------7----------------|
B|------8---10p8-------8-----10p8---8--|------8---10p8-------8---------8--|
G|--7-7---7------7---------7------7----|--7-7---7------7---------7-7h9----|
D|-------------------------------------|----------------------------------|
A|-------------------------------------|----------------------------------|
E|-------------------------------------|----------------------------------|
 |
 |
E|-----------------7-------------------|-----------------7----------------|
B|------8---10p8-------8-----10p8---8--|------8---10p8-------8---------8--|
G|--7-7---7------7---------7------7----|--7-7---7------7---------7-7h9----|
D|-------------------------------------|----------------------------------|
A|-------------------------------------|----------------------------------|
E|-------------------------------------|----------------------------------|
 |
 |
E|-----------------------------------------------------------------------------------|
B|--8-8-8-8-8-8-8-8-8-8-8-8-8-8-8-8-10-10-10-10-10-10-10-10-10-10-10-10-10-10-10-10--|
G|-----------------------------------------------------------------------------------|
D|-----------------------------------------------------------------------------------|
A|-----------------------------------------------------------------------------------|
E|-----------------------------------------------------------------------------------|
 |
 |
E|--------------------------------------------------------------------------|
B|--8-8-8-8-8-8-8-8-8-8-8-8-8-8-8-8-10-10-10-10-10-10-10-10-10-10-10-10-10--|
G|--------------------------------------------------------------------------|
D|--------------------------------------------------------------------------|
A|--------------------------------------------------------------------------|
E|--------------------------------------------------------------------------|
 |
 |
E|---------10tr--7tr--------------7tr---------10tr--7tr---------------7tr--|
B|--8tr--------------10tr----8tr-------8tr---------------10tr----8tr-------|
G|-------------------------------------------------------------------------|
D|-------------------------------------------------------------------------|
A|-------------------------------------------------------------------------|
E|-------------------------------------------------------------------------|
 |
 |
E|--10tr----12tr--10tr--7tr-------------------10tr--7tr---------------7tr------|
B|-----------------------------10tr----8tr---------------10tr----8tr-------8~--|
G|-----------------------------------------------------------------------------|
D|-----------------------------------------------------------------------------|
A|-----------------------------------------------------------------------------|
E|-----------------------------------------------------------------------------|


[3:05 - 3:18]

E|----------------------------------------------------|
B|------------------------------------------------3~--| < You can hear this
G|----------0---------0---------0-----------0---------|   at the end! Starts
D|------0---------0---------0-----------0-------------|   immediately after
A|--3-3---3---3-3---3---3-3---3---3-3-3---3---3-3-----|   previous part ends.
E|----------------------------------------------------|

[END]




----------------------------------------------------------------------------------



THIS IS A CAPO-LESS TAB FOR THIS SONG (AS REQUESTED BY USERS)

THIS IS NOT HOW THE BAND PLAYS THIS SONG, HOWEVER IT IS A LEGITIMATE WAY TO PLAY IT

IF YOU HAVE A CAPO, USE MY OTHER TAB OF THIS SONG (EASIER):
http://tabs.ultimate-guitar.com/t/turnover/cutting_my_fingers_off_tab.htm


[0:00 - 1:39]

GUITAR 1 (Comes in at 0:20)

E|-----------------------------------|
B|----------1---------1---------1----|   x 26
G|------0---------0---------0--------|
D|--3-3---3---3-3---3---3-3---3---3--|   This riff is played continuously
A|-----------------------------------|   from 0:20 - 1:39
E|-----------------------------------|

GUITAR 2 (Comes in at 0:26)

E|------------------------------------|------------------------------------|
B|------------------------------------|------------------------------------|
G|------------0~----------------------|------------0~----------------------|
D|--0~-------------2~---0~------------|--0~-------------2~---0~------------|
A|-------0~------------------0~---3~--|-------0~------------------0~---3~--|
E|------------------------------------|------------------------------------|
 |
 |
E|-----------------------12------------------------|-----------------------12---------------------|
B|--------13----15p13---------13------15p13----13--|--------13----15p13---------13------------13--|
G|--12-12----12-------12-----------12-------12-----|--12-12----12-------12-----------12-12h14-----|
D|-------------------------------------------------|----------------------------------------------|
A|-------------------------------------------------|----------------------------------------------|
E|-------------------------------------------------|----------------------------------------------|
 |
 |
E|-----------------------12------------------------|-----------------------12---------------------------|
B|--------13----15p13---------13------15p13----13--|--------13----15p13---------13------------13--------|
G|--12-12----12-------12-----------12-------12-----|--12-12----12-------12-----------12-12h14------12~--|
D|-------------------------------------------------|----------------------------------------------------|
A|-------------------------------------------------|----------------------------------------------------|
E|-------------------------------------------------|----------------------------------------------------|
 |
 |
 | (Bass and GUITAR 1 play, then GUITAR 2 comes back in at 1:17)
 |
 |
E|-----------------------12------------------------|-----------------------12---------------------|
B|--------13----15p13---------13------15p13----13--|--------13----15p13---------13------------13--|
G|--12-12----12-------12-----------12-------12-----|--12-12----12-------12-----------12-12h14-----|
D|-------------------------------------------------|----------------------------------------------|
A|-------------------------------------------------|----------------------------------------------|
E|-------------------------------------------------|----------------------------------------------|
 |
 |
E|-----------------------12------------------------|-----------------------12---------------------------|
B|--------13----15p13---------13------15p13----13--|--------13----15p13---------13------------13--------|
G|--12-12----12-------12-----------12-------12-----|--12-12----12-------12-----------12-12h14------12~--|
D|-------------------------------------------------|----------------------------------------------------|
A|-------------------------------------------------|----------------------------------------------------|
E|-------------------------------------------------|----------------------------------------------------|


[1:39 - 2:04]

GUITAR 1

E|--3-3-3-3-3-3-3-3-3-3-3-3-3-3-3-3-3-3-3-3-3-3-3-3-3-3-3-3-3-3-3-3--|
B|--1-1-1-1-1-1-1-1-1-1-1-1-1-1-1-1-1-1-1-1-1-1-1-1-1-1-1-1-1-1-1-1--|   x 4
G|--2-2-2-2-2-2-2-2-0-0-0-0-0-0-0-0-0-0-0-0-0-0-0-0-0-0-0-0-0-0-0-0--|
D|----------------------------------2-2-2-2-2-2-2-2-0-0-0-0-0-0-0-0--|
A|-------------------------------------------------------------------|
E|-------------------------------------------------------------------|


GUITAR 2 (Comes in at 1:45)

E|-3-3-3-3-3-3-3-3-3-3-3-3-3-3-3-3-3-3-3-3-3-3-3-3-5-5-5-5-3-3-3-3-0-0-0-0-0-0-0-0-0-0-0-0-0-0-0-0-|
B|-------------------------------------------------------------------------------------------------|
G|-------------------------------------------------------------------------------------------------|
D|-------------------------------------------------------------------------------------------------|
A|-------------------------------------------------------------------------------------------------|
E|-------------------------------------------------------------------------------------------------|
 |
 |
E|------------------1-1-1-1-0-0-0-0--------------------------------------------------|
B|--3-3-3-3-3-3-3-3-----------------1-1-1-1-1-1-1-1-1-1-1-1-1-1-1-1-3-3-3-3-3-3-3-3--|
G|-----------------------------------------------------------------------------------|
D|-----------------------------------------------------------------------------------|
A|-----------------------------------------------------------------------------------|
E|-----------------------------------------------------------------------------------|
 |
 |
E|--3-3-3-3-0-0-0-0-----|
B|------------------1~--|
G|----------------------|
D|----------------------|
A|----------------------|
E|----------------------|


[2:04 - 3:05]

GUITAR 1

E|--3-3-3333-3-333333-3-3333-3-33333--|--3-3-3333-3-333333-3-3333-3-33333--|
B|--1-1-1111-1-111111-1-1111-1-11111--|--1-1-1111-1-111111-1-1111-1-11111--|
G|--2-2-2222-2-222200-0-0000-0-00000--|--2-2-2222-2-222200-0-0000-0-00000--|
D|-----------------02-2-2220-0-00000--|-----------------02-2-2220-0-00000--|
A|------------------------------------|------------------------------------|
E|------------------------------------|------------------------------------|
 |
 |
E|--3-3-3-3-3-3-3-3-3-3-3-3-3-3-3-3-3-3-3-3-3-3-3-3-3-3-3-3-3-3-3-3--|
B|--1-1-1-1-1-1-1-1-1-1-1-1-1-1-1-1-1-1-1-1-1-1-1-1-1-1-1-1-1-1-1-1--|
G|--2-2-2-2-2-2-2-2-2-2-2-2-2-2-2-0-0-0-0-0-0-0-0-0-0-0-0-0-0-0-0-0--|
D|--------------------------------0-2-2-2-2-2-2-2-2-0-0-0-0-0-0-0-0--|
A|-------------------------------------------------------------------|
E|-------------------------------------------------------------------|
 |
 |
E|--3-3-3-3-3-3-3-3-3-3-3-3-3-3-3-3-3-3-3-3-3-3-3-3-3-3-3-3-3-3-3-3--|
B|--1-1-1-1-1-1-1-1-1-1-1-1-1-1-1-1-1-1-1-1-1-1-1-1-1-1-1-1-1-1-1-1--|
G|--2-2-2-2-2-2-2-2-2-2-2-2-2-2-2-0-0-0-0-0-0-0-0-0-0-0-0-0-0-0-0-0--|
D|--------------------------------0-2-2-2-2-2-2-2-2-0-0-0-0-0-0-0-0--|
A|-------------------------------------------------------------------|
E|-------------------------------------------------------------------|
 |
 |
E|--3-33-33-33-333333-33-33-33-33333--|--3-33-33-33-333333-33-33-33-333--|
B|--1-11-11-11-111111-11-11-11-11111--|--1-11-11-11-111111-11-11-11-111--|
G|--2-22-22-22-222200-00-00-00-00000--|--2-22-22-22-222200-00-00-00-000--|
D|-----------------02-22-20-00-00000--|-----------------02-22-20-00-000--|
A|------------------------------------|----------------------------------|
E|------------------------------------|----------------------------------|
 |
 |
E|--3-3-3-3-3-3-3-3-3-3-3-3-3-3-3-3-3-3-3-3-3-3-3-3-3-3-3-3-3-3-3-3--|
B|--1-1-1-1-1-1-1-1-1-1-1-1-1-1-1-1-1-1-1-1-1-1-1-1-1-1-1-1-1-1-1-1--|
G|--2-2-2-2-2-2-2-2-2-2-2-2-2-2-2-2-0-0-0-0-0-0-0-0-0-0-0-0-0-0-0-0--|
D|----------------------------------2-2-2-2-2-2-2-2-0-0-0-0-0-0-0-0--|
A|-------------------------------------------------------------------|
E|-------------------------------------------------------------------|
 |
 |
E|--3-3-3-3-3-3-3-3-3-3-3-3-3-3-3-3-3-3-3-3-3-3-3-3-3-3-3-3-3-3-3-3--|
B|--1-1-1-1-1-1-1-1-1-1-1-1-1-1-1-1-1-1-1-1-1-1-1-1-1-1-1-1-1-1-1-1--|
G|--2-2-2-2-2-2-2-2-2-2-2-2-2-2-2-2-0-0-0-0-0-0-0-0-0-0-0-0-0-0-0-0--|
D|----------------------------------2-2-2-2-2-2-2-2-0-0-0-0-0-0-0-0--|
A|-------------------------------------------------------------------|
E|-------------------------------------------------------------------|
 |
 |
E|--3-3-3-3-3-3-3-3-3-3-3-3-3-3-3-3-3-3-3-3-3-3-3-3-3-3-3-3-3-3-3-3--|
B|--1-1-1-1-1-1-1-1-1-1-1-1-1-1-1-1-1-1-1-1-1-1-1-1-1-1-1-1-1-1-1-1--|
G|--2-2-2-2-2-2-2-2-2-2-2-2-2-2-2-2-0-0-0-0-0-0-0-0-0-0-0-0-0-0-0-0--|
D|----------------------------------2-2-2-2-2-2-2-2-0-0-0-0-0-0-0-0--|
A|-------------------------------------------------------------------|
E|-------------------------------------------------------------------|
 |
 |
E|--3-33-33-33-333333-33-33-33-33333--|--3~--|
B|--1-11-11-11-111111-11-11-11-11111--|--1~--|
G|--2-22-22-22-222200-00-00-00-00000--|--2~--|
D|-----------------02-22-20-00-00000--|------|
A|------------------------------------|------|
E|------------------------------------|------|


GUITAR 2 (Comes in at 2:16)

E|-----------------------12------------------------|-----------------------12---------------------|
B|--------13----15p13---------13------15p13----13--|--------13----15p13---------13------------13--|
G|--12-12----12-------12-----------12-------12-----|--12-12----12-------12-----------12-12h14-----|
D|-------------------------------------------------|----------------------------------------------|
A|-------------------------------------------------|----------------------------------------------|
E|-------------------------------------------------|----------------------------------------------|
 |
 |
E|-----------------------12------------------------|-----------------------12---------------------|
B|--------13----15p13---------13------15p13----13--|--------13----15p13---------13------------13--|
G|--12-12----12-------12-----------12-------12-----|--12-12----12-------12-----------12-12h14-----|
D|-------------------------------------------------|----------------------------------------------|
A|-------------------------------------------------|----------------------------------------------|
E|-------------------------------------------------|----------------------------------------------|
 |
 |
E|---------------------------------------------------------------------------------------------------|
B|--13-13-13-13-13-13-13-13-13-13-13-13-13-13-13-13-15-15-15-15-15-15-15-15-15-15-15-15-15-15-15-15--|
G|---------------------------------------------------------------------------------------------------|
D|---------------------------------------------------------------------------------------------------|
A|---------------------------------------------------------------------------------------------------|
E|---------------------------------------------------------------------------------------------------|
 |
 |
E|------------------------------------------------------------------------------------------|
B|--13-13-13-13-13-13-13-13-13-13-13-13-13-13-13-13-15-15-15-15-15-15-15-15-15-15-15-15-15--|
G|------------------------------------------------------------------------------------------|
D|------------------------------------------------------------------------------------------|
A|------------------------------------------------------------------------------------------|
E|------------------------------------------------------------------------------------------|
 |
 |
E|----------15tr--12tr---------------12tr----------15tr--12tr----------------12tr--|
B|--13tr---------------15tr----13tr--------13tr----------------15tr----13tr--------|
G|---------------------------------------------------------------------------------|
D|---------------------------------------------------------------------------------|
A|---------------------------------------------------------------------------------|
E|---------------------------------------------------------------------------------|
 |
 |
E|--15tr----17tr--15tr--12tr--------------------15tr--12tr----------------12tr-------|
B|------------------------------15tr----13tr----------------15tr----13tr--------13~--|
G|-----------------------------------------------------------------------------------|
D|-----------------------------------------------------------------------------------|
A|-----------------------------------------------------------------------------------|
E|-----------------------------------------------------------------------------------|


[3:05 - 3:18]

E|------------------------------------------------3~--|
B|----------1---------1---------1-----------1---------| < You can hear this
G|------0---------0---------0-----------0-------------|   at the end! Starts
D|--3-3---3---3-3---3---3-3---3---3-3-3---3---3-3-----|   immediately after
A|----------------------------------------------------|   previous part ends.
E|----------------------------------------------------|



****************************

|  ~    held note
|  p    pull off
|  h    hammer on
|  tr   tremolo pick

****************************

            
            
Suggest correction
Creating personal tab
Creating personal tab
You can edit any tab online and save it as your Personal.

You can edit, replace or remove any tab part or add personal notes – all changes will be seen only by you.

Personal tabs can be accessed anytime from any device, even offline.
Learn more »
comments
print report bad tab
10 comments total. Showing first comments.
0 reply
undefinedcolton 10 Jul 12, 2015 02:04 PM

wonderful tab! thank you so much for posting this. i've been trying to figure it out by ear but to no avail. a capo-less tab would be wonderful though!

0 reply
goonasschuey 20 Aug 03, 2015 05:08 PM

Dude I made a guitar cover of the song without capo if it helps you can check it out

0 reply
mynamesmiller15 10 Aug 05, 2015 08:54 PM

Wooo, thank you friend!

guest
You may want to rate the tab now too:
select rating
Wanna post a correction for this tab? Suggest correction