Oops, an error
Loading. Please wait.

One Hand Killing tab

version 1
version 1

Whole song

Interactive

8,740 views 96 this week
14 commentsread comments
1 2 3 4 5
x 8
add to favorites
×
Save as Personal and add changes to this tab that will be seen only by you. Learn more ›
×
You can save this tab as Personal to edit and correct it or add notes. All changes will be seen only by you. Learn more »
launch autoscroll
font size
0
reset
how to read this tab
guitar tuner
edit
Autoscroll
slow
fast
+/-
esc
set tempo
stop
----------------------------------------------------------------------------------------------
                             One Hand Killing - Twelve Foot Ninja
----------------------------------------------------------------------------------------------
Tabbed by: Micah Hobson
E-mail: shadowbreakmusic@gmail.com

NOTICE: This song is not yet complimentary to those with Djent sticks. I'll be uploading that version 
separately considering not all of us are fortunate to have a bass attached to our guitar XD

Tuning: Drop D

[Intro] Just... ya know. keep going until you've had enough.
e|----------------------------------------------------------------------------|
B|----------------------------------------------------------------------------|
G|----------------------------------------------------------------------------|
D|-00000000000000000000000000000000000000000000000000000000000000000000000000-|
A|-44444444444444444444444444444444444444444444444444444444444444444444444444-|
D|----------------------------------------------------------------------------|

e|---------------------------------------------------------------------------------------------------------|
B|----------------------------==---------------------------------------------------------------------------|
G|----------------------------------------------12------------------------------------------------12--12---|
D|-0-0-------------00--------------------------------0-0-------------------0-------------------00----------|
A|-0-0-------------00-----------------------------13-0-0-10/12-12-10/12-12-0-10/12-12-10/12-12-00---13--13-|
D|-0-0-11h12-12h13-00-11h12-12-13p12-15p13-13-13-----0-0-------------------0-------------------00----------|

e|--------------------------------------------------------------------------------------------------|
B|--------------------------------------------------------------------------------------------------|
G|------5/6-6/7----5/6-6/7\6-8\7--7--7-12--------------------------------------------------12--12---|
D|-0--0---------00--------------------------0-0-------------------0-0-------------------00----------|
A|-0--0-4/5-5/6-00-4/5-5/6\5-7\6--6--6---13-0-0-10/12-12-10/12-12-0-0-10/12-12-10/12-12-00---13--13-|
D|-0--0---------00--------------------------0-0-------------------0-0-------------------00----------|


[Verse](PALM/LEFT HAND MUTE)
   v^ v ^v^ v ^v v ^v^ v ^v ^v^ v^ v ^v^ v ^v v ^v^ v ^v ^v^
e|---------------------------------------------------------------------------|
B|---------------------------------------------------------------------------|
G|---------------------------------------------------------------------------|
D|-00-0-000-0-00-0-000-0-00-000-00-0-000-0-00-0-000-0-00-000-----------------|
A|-00-0-000-0-00-0-000-0-00-000-00-0-000-0-00-0-000-0-00-000-----------------|
E|-00-0-000-0-00-0-000-0-00-000-00-0-000-0-00-0-000-0-00-000-----------------|
---v^-v-^v^-v-^v-v-^v^-v-^v-^v^-v^-v-^v^-v-^v-v-^v^-v-^v^-v
e|---------------------------------------------------------------------------|
B|---------------------------------------------------------------------------|
G|---------------------------------------------------------------------------|
D|-00-0-000-0-00-0-000-0-00-000-00-0-000-0-00-0-000-0-000-1------------------|
A|-00-0-000-0-00-0-000-0-00-000-00-0-000-0-00-0-000-0-000-1------------------|
D|-00-0-000-0-00-0-000-0-00-000-00-0-000-0-00-0-000-0-000-1------------------|

[Chorus] For every note there is 4 strums. The 1s in the second phrase are chain chords.
e|--------------------------------------------------------------------------|
B|--------------------------------------------------------------------------|
G|--------------------------------------------------------------------------|
D|-4-4-4-4-4-4-4-5-5-5-5-10-10-10-9-7-7-7-6-6-6-6-6-1-1-1-1-1-1-1-1-1-------|
A|-4-4-4-4-4-4-4-5-5-5-5-10-10-10-9-7-7-7-6-6-6-6-6-1-1-1-1-1-1-1-1-1-------|
D|-4-4-4-4-4-4-4-5-5-5-5-10-10-10-9-7-7-7-6-6-6-6-6-1-1-1-1-1-1-1-1-1-------|

e|-0-0-0-0-0-0-0-0-0-0-0-0-0-0-0--------------------------------------------|
B|-3-3-3-3-3-3-3-3-3-3-3-3-3-3-3--------------------------------------------|
G|-2-2-2-2-2-2-2-2-2-2-2-2-2-2-2--------------------------------------------|
D|-0-0-0-0-0-0-0-1-1-1-1-1-1-1-1-3-3-3-3-3-3-3-3-11-1-111-11-1-11-11-1-11-1-|
A|-0-0-0-0-0-0-0-1-1-1-1-1-1-1-1-3-3-3-3-3-3-3-3-11-1-111-11-1-11-11-1-11-1-|
D|-0-0-0-0-0-0-0-1-1-1-1-1-1-1-1-3-3-3-3-3-3-3-3-11-1-111-11-1-11-11-1-11-1-|

[2nd Breakdown] (_) <= Parentheses imply speed sections. Thanks to kolya.an for the correction!
e|----------------------------------------------------------------|
B|----------------------------------------------------------------|
G|----------------------------------------------------------------|
D|-0-0-0-000-------------00----------00----------------00---------|
A|-0-0-0-000-------------00----------00----------------00---------|
D|-0-0-0-000-11/12-11/12-00-11-11/12-00-11-11/12-11/12-00---------|

e|----------------------------------------------------------------|
B|----------------------------------------------------------------|
G|----------------------------------------------------------------|
D|-0-0-0-000-------------00----------00---------------------------|
A|-0-0-0-000-------------00----------00-------------(10----10-----|
D|-0-0-0-000-11/12-11/12-00-11-11/12-00-11-(11h12h13----13----12)-|

[Jazz Riff]x2
e|---------------------------------------------------------------------------|
B|-16-16-x-16-15-xx-15-xx-15-13-13-x-13-15-xx-15-xx-15-----------------------|
G|-15-15-x-15-14-xx-14-xx-14-12-12-x-12-14-xx-14-xx-14-----------------------|
D|---------------------------------------------------------------------------|
A|---------------------------------------------------------------------------|
D|---------------------------------------------------------------------------|
                                                        vvv Out to breakdown
e|-----------------------------------------------------|----------|
B|-14-14-x-14-15-xx-15-xx-15-14-14-x-14-15-xx-15-xx-15-|----------|
G|-14-14-x-14-15-xx-15-xx-15-14-14-x-14-15-xx-15-xx-15-|----------|
D|-14-14-x-14-15-xx-15-xx-15-14-14-x-14-15-xx-15-xx-15-|-7-5-8-10-|
A|-----------------------------------------------------|-7-5-8-10-|
D|-----------------------------------------------------|-7-5-8-10-|

[Breakdown]
e|---------------------------------------------------------------------------------------------------------|
B|---------------------------------------------------------------------------------------------------------|
G|----------------------------------------------12------------------------------------------------12--12---|
D|-0-0-------------00--------------------------------0-0-------------------0-------------------00----------|
A|-0-0-------------00-----------------------------13-0-0-10/12-12-10/12-12-0-10/12-12-10/12-12-00---13--13-|
D|-0-0-11h12-12h13-00-11h12-12-13p12-15p13-13-13-----0-0-------------------0-------------------00----------|

*DROP OUT 2ND TIME FOR BASS*

[Verse]
   v^ v ^v^ v ^v v ^v^ v ^v ^v^ v^ v ^v^ v ^v v ^v^ v ^v ^v^
e|---------------------------------------------------------------------------|
B|---------------------------------------------------------------------------|
G|---------------------------------------------------------------------------|
D|-00-0-000-0-00-0-000-0-00-000-00-0-000-0-00-0-000-0-00-000-----------------|
A|-00-0-000-0-00-0-000-0-00-000-00-0-000-0-00-0-000-0-00-000-----------------|
D|-00-0-000-0-00-0-000-0-00-000-00-0-000-0-00-0-000-0-00-000-----------------|
   v^ v ^v^ v ^v v ^v^ v ^v ^v^ v^ v ^v^ v ^v v ^v^ v ^v ^v^
e|---------------------------------------------------------------------------|
B|---------------------------------------------------------------------------|
G|---------------------------------------------------------------------------|
D|-00-0-000-0-00-0-000-0-00-000-00-0-000-0-00-0-000-0-00-000-----------------|
A|-00-0-000-0-00-0-000-0-00-000-00-0-000-0-00-0-000-0-00-000-----------------|
D|-00-0-000-0-00-0-000-0-00-000-00-0-000-0-00-0-000-0-00-000-----------------|

[Chorus]
e|---------------------------------------------------------------------------|
B|---------------------------------------------------------------------------|
G|---------------------------------------------------------------------------|
D|-4-4-4-4-4-4-4-5-5-5-5-10-10-10-9-7-7-7-6-6-6-6-6-1-1-1-1-1-1-1-1-1--------|
A|-4-4-4-4-4-4-4-5-5-5-5-10-10-10-9-7-7-7-6-6-6-6-6-1-1-1-1-1-1-1-1-1--------|
D|-4-4-4-4-4-4-4-5-5-5-5-10-10-10-9-7-7-7-6-6-6-6-6-1-1-1-1-1-1-1-1-1--------|

e|-0-0-0-0-0-0-0-0-0-0-0-0-0-0-0---------------------------------------------|
B|-3-3-3-3-3-3-3-3-3-3-3-3-3-3-3---------------------------------------------|
G|-2-2-2-2-2-2-2-2-2-2-2-2-2-2-2---------------------------------------------|
D|-0-0-0-0-0-0-0-1-1-1-1-1-1-1-1-3-3-3-3-3-3-3-3-11-1-111-11-1-11-11-1-11-1--|
A|-0-0-0-0-0-0-0-1-1-1-1-1-1-1-1-3-3-3-3-3-3-3-3-11-1-111-11-1-11-11-1-11-1--|
D|-0-0-0-0-0-0-0-1-1-1-1-1-1-1-1-3-3-3-3-3-3-3-3-11-1-111-11-1-11-11-1-11-1--|


[Jazz Riff] Until fade out/you feel jazzed the f*** out.
e|---------------------------------------------------------------------------|
B|-16-16-x-16-15-xx-15-xx-15-13-13-x-13-15-xx-15-xx-15-----------------------|
G|-15-15-x-15-14-xx-14-xx-14-12-12-x-12-14-xx-14-xx-14-----------------------|
D|---------------------------------------------------------------------------|
A|---------------------------------------------------------------------------|
D|---------------------------------------------------------------------------|

e|---------------------------------------------------------------------------|
B|-14-14-x-14-15-xx-15-xx-15-14-14-x-14-15-xx-15-xx-15-----------------------|
G|-14-14-x-14-15-xx-15-xx-15-14-14-x-14-15-xx-15-xx-15-----------------------|
D|-14-14-x-14-15-xx-15-xx-15-14-14-x-14-15-xx-15-xx-15-----------------------|
A|---------------------------------------------------------------------------|
D|---------------------------------------------------------------------------|


I want to give a quick thanks to @danielisaacjohnson on Instagram for his cover of the song 
(which i kinda used to figure out the 2nd half of the 1st breakdown ;-; sorry dude. ur good tho).
...Anyway, thanks for reading this tab! Remember to rate and comment and if you have any 
suggestions feel free to add 'em. I'll make sure to discuss them and improve 
the tab whenever possible.

************************************

| /   slide up
| \   slide down
| h   hammer-on
| p   pull-off
| ~   vibrato
| +   harmonic
| x   Mute note
| b   Bend
| pb  Pre-bend
| br  Bend release
| pbr Pre-bend release
| brb Bend release bend

************************************

            
            
Suggest correction
Creating personal tab
Creating personal tab
You can edit any tab online and save it as your Personal.

You can edit, replace or remove any tab part or add personal notes – all changes will be seen only by you.

Personal tabs can be accessed anytime from any device, even offline.
Learn more »
comments
print report bad tab
14 comments total. Showing first comments.
+1 reply
scottslayer 10 May 26, 2016 06:38 PM

I have to thank you for tabbing this out.

0 reply
MasterMicahWH 592 Sep 19, 2016 12:08 PM, edited on October 3 2016, 10:24 am

No prob man. I'm gonna add another version of it once i have an 8 string to fix the notes that are noticeably in a different octave. I'm gonna do the rest of the album this month if i can but it's gonna be a stretch...

0 reply
java8 130 Oct 07, 2016 03:43 AM

Thanks for the tab man. I see that the guitarists use 6 string in the videos. How do they get that 8 string low octave sound? Do they use some pedals or is it all coming from the bass?

guest
You may want to rate the tab now too:
select rating
Wanna post a correction for this tab? Suggest correction