Oops, an error
Loading. Please wait.

Air Catcher bass

version 1
version 1

Whole song

3,541 views 24 this week
no commentswrite comment
1 2 3 4 5
x 15
add to favorites
×
Save as Personal and add changes to this tab that will be seen only by you. Learn more ›
×
You can save this tab as Personal to edit and correct it or add notes. All changes will be seen only by you. Learn more »
launch autoscroll
font size
0
reset
guitar tuner
edit
Autoscroll
slow
fast
+/-
esc
set tempo
stop
------------------------------------------------------------------
               AIR CATCHER - Twenty One Pilots
------------------------------------------------------------------

Tuning: Standard

[Verse 1. Bass starts at 0:52]

G|----------------------------------------------------------------------|
D|----------------------------------------------------------------------|
A|-6-6-6-6-6-6-6-6-6-6-6-6-6-6-6-6-1-1-1-1-1-1-1-1-1-1-1-1-1-1-1-1------|
E|----------------------------------------------------------------------|

G|----------------------------------------------------------------------|
D|----------------------------------------------------------------------|
A|---------------------------------3-3-3-3-3-3-3-3-3-3-3-3-3-3-3-3------|
E|-4-4-4-4-4-4-4-4-3-3-3-3-3-3-3-3--------------------------------------|

[Chorus starts 1:09]

G|----------------------------------------------------------------------|
D|----------------------------------------------------------------------|
A|------------4-4--10-11------------------------------------------------|
E|-1-1--10-11-----------------------------------------------------------|

G|----------------------------------------------------------------------|
D|----------------------------------------------------------------------|
A|---------------------------------3-3-3-3-3-3-3-3-3-3-3-3-3-3-3-3~-----|
E|-4-4-4-4-4-4-4-4-4-4-4-4-4-4-4-4--------------------------------------|

[Post-Chorus starts 1:27]

G|----------------------------------------------------------------------|
D|----------------------------------------------------------------------|
A|---------------------------------4-4-4-4-4-4-4-4-4-4-4-4-4-4-4-4------|
E|-1-1-1-1-1-1-1-1-1-1-1-1-1-1-1-1--------------------------------------|

G|----------------------------------------------------------------------|
D|----------------------------------------------------------------------|
A|---------------------------------3-3-3-3-3-3-3-3----------------------|
E|-4-4-4-4-4-4-4-4-4-4-4-4-4-4-4-4--------------------------------------|

[Verse 2 starts 1:44]

G|----------------------------------------------------------------------|
D|----------------------------------------------------------------------|
A|-6-6-6-6-6-6-6-6-6-6-6-6-6-6-6-6-1-1-1-1-1-1-1-1-1-1-1-1-1-1-1-1------|
E|----------------------------------------------------------------------|
                                                                            x2
G|----------------------------------------------------------------------|
D|----------------------------------------------------------------------|
A|---------------------------------3-3-3-3-3-3-3-3-3-3-3-3-3-3-3-3------|
E|-4-4-4-4-4-4-4-4-3-3-3-3-3-3-3-3--------------------------------------|

[Chorus starts 2:20]

G|----------------------------------------------------------------------|
D|----------------------------------------------------------------------|
A|-------4-4--10-11-----------------------------------------------------|
E|-1-1------------------------------------------------------------------|

G|----------------------------------------------------------------------|
D|----------------------------------------------------------------------|
A|---------------------------------3-3-3-3-3-3-3-3~---------------------|
E|-4-4-4-4-4-4-4-4-4-4-4-4-4-4-4-4--------------------------------------|

G|----------------------------------------------------------------------|
D|----------------------------------------------------------------------|
A|---------------------------------4-4-4-4-4-4-4-4-4-4-4-4-4-4-4-4------|
E|-1-1-1-1-1-1-1-1-1-1-1-1-1-1-1-1--------------------------------------|

G|----------------------------------------------------------------------|
D|----------------------------------------------------------------------|
A|---------------------------------3-3-3-3-3-3-3-3-3-3-3-3-3-3-3-3------|
E|-4-4-4-4-4-4-4-4-4-4-4-4-4-4-4-4--------------------------------------|

[Bridge starts 2:54. Play in time with the beat.]

G|----------------------------------------------------------------------|
D|----------------------------------------------------------------------|
A|-----------------------------------4~--4-4-4--------------------------|
E|-1~--1-1-1--4~--4-4-4--6~--6-6-6--------------------------------------|

G|----------------------------------------------------------------------|
D|----------------------------------------------------------------------|
A|-----------------------------------4~--444444-------------------------|
E|-1~--1-1-1--4~--4-4-4--6~--6-6-6--------------1~----------------------|

Bass ends here.


| /  slide up
| \  slide down
| h  hammer-on
| p  pull-off
| ~  vibrato
| +  harmonic
| x  Mute note
| r  Rest

            
            
Suggest correction
Creating personal tab
Creating personal tab
You can edit any tab online and save it as your Personal.

You can edit, replace or remove any tab part or add personal notes – all changes will be seen only by you.

Personal tabs can be accessed anytime from any device, even offline.
Learn more »
comments
print report bad tab
guest
You may want to rate the tab now too:
select rating
Wanna post a correction for this tab? Suggest correction