Oops, an error
Loading. Please wait.
We have an official Car Radio tab made by UG professional guitarists. Check out the tab »
×
25,100 views 72 this week
2 commentsread comments
1 2 3 4 5
x 25
add to favorites
×
Save as Personal and add changes to this tab that will be seen only by you. Learn more ›
×
You can save this tab as Personal to edit and correct it or add notes. All changes will be seen only by you. Learn more »
launch autoscroll
font size
0
reset
how to read this tab
guitar tuner
edit
Autoscroll
slow
fast
+/-
esc
set tempo
stop
Author
Piano for Whole Song
e|-1~---1~---3~-5~---3~--|
B|-1~---1~---3~-5~---3~--|
G|-2~---2~---4~-5~---4~--|
D|-3~---3~---5~-7~---5~--|
A|-3~---3~---5~-7~---5~--|
E|-1~---1~---3~-5~---3~--|


 other variation plays this at some parts.
e|-1~---1~---3~-5~---3~---|
B|-1~---1~---3~-5~---3~-3-|
G|-2~---2~---4~-5~---4~-4-|
D|-3~---3~---5~-7~---5~---|
A|-3~---3~---5~-7~---5~---|
E|-1~---1~---3~-5~---3~---|


 Backup Synth at certain points in song
e|-5~------------------5~------------------|
B|------8~---5~---8~--------8~---5~--------|
G|------------------------------------7~---|
D|-----------------------------------------|
A|-----------------------------------------|
E|-----------------------------------------|


 Solo
e|-------------------------------------------------------|
B|-------------------------------------------------12-12-|
G|-14-14-14-14-14-14-14-14-12-14-14-14-14-14-14-14-------|
D|-------------------------------------------------------|
A|-------------------------------------------------------|
E|-------------------------------------------------------|

e|-------------------------------------------------|
B|-13-13-13-13-13-12-13-15-12-12-12-12-12----12-13-|
G|----------------------------------------14-------|
D|-------------------------------------------------|
A|-------------------------------------------------|
E|-------------------------------------------------|


************************************

| ~  Let Ring

************************************

            
            
Suggest correction
Creating personal tab
Creating personal tab
You can edit any tab online and save it as your Personal.

You can edit, replace or remove any tab part or add personal notes – all changes will be seen only by you.

Personal tabs can be accessed anytime from any device, even offline.
Learn more »
comments
print report bad tab
2 comments total. show 1 bad comment
+1 reply
UH-HiloMOKES 2,073 Aug 12, 2016 11:45 PM, edited on September 1 2016, 11:47 pm

Cool story, bro. Thanks for the one star, mong.

guest
You may want to rate the tab now too:
select rating
Wanna post a correction for this tab? Suggest correction