Oops, an error
Loading. Please wait.
We have an official Car Radio tab made by UG professional guitarists. Check out the tab »
×
2,239 views 6 this week
no commentswrite comment
1 2 3 4 5
x 3
add to favorites
×
Save as Personal and add changes to this tab that will be seen only by you. Learn more ›
×
You can save this tab as Personal to edit and correct it or add notes. All changes will be seen only by you. Learn more »
launch autoscroll
font size
0
reset
how to read this tab
guitar tuner
edit
Autoscroll
slow
fast
+/-
esc
set tempo
stop
Author
-------------------------------------------------------------------------------
                             Car Radio - Twenty One Pilots
-------------------------------------------------------------------------------
Tabbed by: Jeuris G

Tuning:Standard

note: Listen realy well to the song cause the timing is the most important thing of the song,
      And its pretty hard to explain it in a tab.


Intro
e|---------------------------------------------------------------------------|
B|-10------10------12---13------8------10------10------12---13------8--------|
G|---------------------------------------------------------------------------|
D|---------------------------------------------------------------------------|
A|-8-------8-------10---12------7------8-------8-------10---12------7--------|
E|---------------------------------------------------------------------------|

   I pounder of...
e|---------------------------------------------------------------------------|
B|-10------10------12---13------8------10------10------12---13------8--------|
G|---------------------------------------------------------------------------|
D|---------------------------------------------------------------------------|
A|-8-------8-------10---12------7------8-------8-------10---12------7--------|
E|---------------------------------------------------------------------------|

           Sometimes quiet is...
e|---------------------------------------------------------------------------|
B|-10------10------12---13------8------10------10------12---13------8--------|
G|---------------------------------------------------------------------------|
D|---------------------------------------------------------------------------|
A|-8-------8-------10---12------7------8-------8-------10---12------7--------|
E|---------------------------------------------------------------------------|

   Im forced to deal...
e|---------------------------------------------------------------------------|
B|-10------10------12---13------8------10------10------12---13------8--------|
G|---------------------------------------------------------------------------|
D|---------------------------------------------------------------------------|
A|-8-------8-------10---12------7------8-------8-------10---12------7--------|
E|---------------------------------------------------------------------------|

Instrumental (x2)
e|---------------------------------------------------------------------------|
B|-10------10------12---13------8------10------10------12---13------8--------|
G|---------------------------------------------------------------------------|
D|---------------------------------------------------------------------------|
A|-8-------8-------10---12------7------8-------8-------10---12------7--------|
E|---------------------------------------------------------------------------|

 I pounder of...
e|---------------------------------------------------------------------------|
B|-10------10------12---13------8------10------10------12---13------8--------|
G|---------------------------------------------------------------------------|
D|---------------------------------------------------------------------------|
A|-8-------8-------10---12------7------8-------8-------10---12------7--------|
E|---------------------------------------------------------------------------|

 There are things...
e|---------------------------------------------------------------------------|
B|-10------10------12---13------8------10------10------12---13------8--------|
G|---------------------------------------------------------------------------|
D|---------------------------------------------------------------------------|
A|-8-------8-------10---12------7------8-------8-------10---12------7--------|
E|---------------------------------------------------------------------------|

 To think is to be alive...
e|---------------------------------------------------------------------------|
B|-10------10------12---13------8------10------10------12---13------8--------|
G|---------------------------------------------------------------------------|
D|---------------------------------------------------------------------------|
A|-8-------8-------10---12------7------8-------8-------10---12------7--------|
E|---------------------------------------------------------------------------|

Instrumental 2.0 (play the b sting continuously) 
e|---------------------------------------------------------------------------|
B|-101010101010101012121213131313888888101010101010101012121213131313888888--|
G|---------------------------------------------------------------------------|
D|---------------------------------------------------------------------------|
A|-8-------8-------10---12------7------8-------8-------10---12------7--------|
E|---------------------------------------------------------------------------|

Instrumental 2.0 (play the b sting continuously) + Ooooohoooh
e|---------------------------------------------------------------------------|
B|-101010101010101012121213131313888888101010101010101012121213131313888888--|
G|---------------------------------------------------------------------------|
D|---------------------------------------------------------------------------|
A|-8-------8-------10---12------7------8-------8-------10---12------7--------|
E|---------------------------------------------------------------------------|

Instrumental 2.0 (play the b sting continuously) 
e|---------------------------------------------------------------------------|
B|-101010101010101012121213131313888888101010101010101012121213131313888888--|
G|---------------------------------------------------------------------------|
D|---------------------------------------------------------------------------|
A|-8-------8-------10---12------7------8-------8-------10---12------7--------|
E|---------------------------------------------------------------------------|

Instrumental 2.0 (play the b sting continuously) + Ooooohoooh
e|---------------------------------------------------------------------------|
B|-101010101010101012121213131313888888101010101010101012121213131313888888--|
G|---------------------------------------------------------------------------|
D|---------------------------------------------------------------------------|
A|-8-------8-------10---12------7------8-------8-------10---12------7--------|
E|---------------------------------------------------------------------------|

Instrumental 2.0 (play the b sting continuously) 
e|---------------------------------------------------------------------------|
B|-101010101010101012121213131313888888101010101010101012121213131313888888--|
G|---------------------------------------------------------------------------|
D|---------------------------------------------------------------------------|
A|-8-------8-------10---12------7------8-------8-------10---12------7--------|
E|---------------------------------------------------------------------------|

   And now I just.... (x2)
e|---------------------------------------------------------------------------|
B|-101010101010101012121213131313888888101010101010101012121213131313888888--|
G|---------------------------------------------------------------------------|
D|---------------------------------------------------------------------------|
A|-8-------8-------10---12------7------8-------8-------10---12------7--------|
E|---------------------------------------------------------------------------|

  I pounder of...
e|---------------------------------------------------------------------------|
B|-10------10------12---13------8------10------10------12---13------8--------|
G|---------------------------------------------------------------------------|
D|---------------------------------------------------------------------------|
A|-8-------8-------10---12------7------8-------8-------10---12------7--------|
E|---------------------------------------------------------------------------|

            
            
Suggest correction
Creating personal tab
Creating personal tab
You can edit any tab online and save it as your Personal.

You can edit, replace or remove any tab part or add personal notes – all changes will be seen only by you.

Personal tabs can be accessed anytime from any device, even offline.
Learn more »
Give kudos to tab author, rate the tab!
1 2 3 4 5
comments
print report bad tab
guest
You may want to rate the tab now too:
select rating
Wanna post a correction for this tab? Suggest correction