Oops, an error
Loading. Please wait.
We have an official Fairly Local tab made by UG professional guitarists. Check out the tab »
×
8,045 views 27 this week
1 commentread comment
1 2 3 4 5
x 3
add to favorites
×
Save as Personal and add changes to this tab that will be seen only by you. Learn more ›
×
You can save this tab as Personal to edit and correct it or add notes. All changes will be seen only by you. Learn more »
launch autoscroll
font size
0
reset
guitar tuner
edit
Autoscroll
slow
fast
+/-
esc
set tempo
stop
Author
Difficulty
intermediate
FAIRLY LOCAL - Twenty One Pilots

Tabbed by: Sean M.
E-mail: seannmmcculloch@gmail.com
Tuning: CADG
Alternate Tuning(At Bottom): E standard
(*Notes surrounded with parenthesis are optional.)

[Intro](0:00)   
(Play these palm muted along with the bass drum.)
G|---------------------------------------------------------------------------|
D|---------------------------------------------------------------------------|
A|---------------------------------------------------------------------------|
C|--0---00------00---0---00------0-00----------------------------------------|

[Chorus](0:16)
G|------------------------------------------------------------------|
D|------------------------------------------------------------------|
A|------------5555---2222-(4)----------------------7777-(4)---------|
C|---6666-(8)-----------------6666---6666-(8)-9999----------6666----|

[Verse](0:49)       *Palm Mutes
G|---------------------------------------------------------------------------|
D|---------------------------------------------------------------------------|
A|---------------------------------------------------------------------------|
C|---0------00---60---00---0------00---60------------------------------------|

[Chorus](1:06)
G|------------------------------------------------------------------|
D|------------------------------------------------------------------|
A|------------5555---2222-(4)----------------------7777-(4)---------|
C|---6666-(8)-----------------6666---6666-(8)-9999----------6666----|

[Pre-Verse](1:27)       *Palm Mutes
G|--------------------------------------------------------|
D|--------------------------------------------------------|
A|--------------------------------------------------------|
C|---0----------------------------------0-----------------|

[Blurryface Verse](1:43)       *Palm Mutes
G|---------------------------------------------------------------------------|
D|---------------------------------------------------------------------------|
A|---------------------------------------------------------------------------|
C|---0------00---60---00---0------00---60------------------------------------|

[Pause]

[Chorus](2:01)
G|--------------------------------------------------------------|
D|--------------------------------------------------------------|
A|--------5555---2222-(4)-----------------------7777-(4)--------|
C|---6666-----------------6666----6666-(8)-9999----------6666---|

[Bridge](2:26)       *Palm Mutes
G|----------------------------------------|
D|----------------------------------------|
A|----------------------------------------|
C|---0-----60---0-----60---0-----60-------|

[Final Chorus](2:50)
G|------------------------------------------------------------------|
D|------------------------------------------------------------------|
A|------------5555---2222-(4)----------------------7777-(4)---------|
C|---6666-(8)-----------------6666---6666-(8)-9999----------6666----|

G|-----------------------------------------------------|
D|-----------------------------------------------------|
A|---5555-(5)-7777---4444-(4)---------5555-(5)-7777----|
C|----------------------------6666---------------------|

[ALTERNATE TABS](Only played during chorus)
G|---------------------------------------------------------------------------|
D|---------------------------------------------------------------------------|
A|------------5555---2222-(4)------------------------7777-(4)----------------|
E|---2222-(4)-----------------2222---2222-(4)-5555------------2222-----------|

*****************************************

| /  slide up
| \  slide down
| h  hammer-on
| p  pull-off
| ~  vibrato
| +  harmonic
| x  Mute note

*****************************************

            
            
Suggest correction
Creating personal tab
Creating personal tab
You can edit any tab online and save it as your Personal.

You can edit, replace or remove any tab part or add personal notes – all changes will be seen only by you.

Personal tabs can be accessed anytime from any device, even offline.
Learn more »
Give kudos to tab author, rate the tab!
1 2 3 4 5
comments
print report bad tab
1 comment total.
0 reply
brooketanner123 10 Jul 07, 2016 07:53 AM

The chorus is a bit off, and also too short to fit the song. Maybe put in a repeat and fix some of it?

guest
You may want to rate the tab now too:
select rating
Wanna post a correction for this tab? Suggest correction