Oops, an error
Loading. Please wait.
We have an official Heathens tab made by UG professional guitarists. Check out the tab »
×

Heathens bass

version 7
version 7

Whole song

  • Added changes related to the comments.
  • This version is based off of directly what is hear... Show more
  • Five string standard bass tab. No need to drop tune.
58,552 views 12 this week
8 commentsread comments
1 2 3 4 5
x 30
add to favorites
×
Save as Personal and add changes to this tab that will be seen only by you. Learn more ›
×
You can save this tab as Personal to edit and correct it or add notes. All changes will be seen only by you. Learn more »
launch autoscroll
font size
0
reset
guitar tuner
edit
Autoscroll
slow
fast
+/-
esc
set tempo
stop
Heathens (BASS)- twenty one pilots
TABBED BY: Guitar Player21
TUNNING: EADG (Standard)

[Intro]
G|---------------------------------------------------------------------------|
D|---------------------------------------------------------------------------|
A|-0----------0-----------3---0--------3---0---------------------------------|
E|-------0----------0-------------0------------0-----------------------------|

G|---------------------------------------------------------------------------|
D|---------------------------------------------------------------------------|
A|-0----------0-----------3---0--------3---0---------------------------------|
E|-------0----------0-------------0------------0-----------------------------|

[Verse 1]
G|---------------------------------------------------------------------------|
D|---------------------------------------------------------------------------|
A|-0----------0-----------0-----------0-----2-----2--------------------------|
E|------0-----------0-----------0--------------------------------------------|

[Chorus]
G|---------------------------------------------------------------------------|
D|---------------------------------------------------------------------------|
A|-0----------0-----------3---0--------3---0---------------------------------|
E|-------0----------0-------------0------------0-----------------------------|

[Verse 2]
G|---------------------------------------------------------------------------|
D|---------------------------------------------------------------------------|
A|-0----------0-----------0-----------0-----2-----2--------------------------|
E|------0-----------0-----------0--------------------------------------------|

[Pre-Chorus]
G|---------------------------------------------------------------------------|
D|---------------------------------------------------------------------------|
A|-3--0--------3--0----------------------------------------------------------|
E|-------0--0--------0--0----------------------------------------------------|

[Chorus]
G|---------------------------------------------------------------------------|
D|---------------------------------------------------------------------------|
A|-0----------0-----------3---0--------3---0---------------------------------|
E|-------0----------0-------------0------------0-----------------------------|

[Bridge]
G|---------------------------------------------------------------------------|
D|---------------------------------------------------------------------------|
A|-0----------0-----------0-----------0--------------------------------------|
E|------0-----------0-----------0-----------0--------------------------------|

[Outro]
G|---------------------------------------------------------------------------|
D|---------------------------------------------------------------------------|
A|-3---0---------3---0-------3---0-------3---0-------------------------------|
E|---------0-------------0-----------0-----------0---------------------------|

            
            
Suggest correction
Creating personal tab
Creating personal tab
You can edit any tab online and save it as your Personal.

You can edit, replace or remove any tab part or add personal notes – all changes will be seen only by you.

Personal tabs can be accessed anytime from any device, even offline.
Learn more »
comments
print report bad tab
8 comments total. Showing first comments.
+1 reply
rocker12134 10 Jun 18, 2016 02:46 PM

Thank you yet again for making another great tøp tab!

0 reply
emarco72 34 Jun 21, 2016 08:05 AM

I made a heathens bass tab a little before you and now looking at yours ik im horribly wrong on mine oops haha

+1 reply
Guitar Player21 241 Jun 22, 2016 02:52 PM, edited on July 8 2016, 12:15 pm

:)

guest
You may want to rate the tab now too:
select rating
Wanna post a correction for this tab? Suggest correction