Oops, an error
Loading. Please wait.
We have an official Heavydirtysoul tab made by UG professional guitarists. Check out the tab »
×

Heavydirtysoul bass

version 4
version 4

Whole song

  • This tabs is for the TOPxMM collaboration.
  • I'm not sure if this is the exact correct tab howe... Show more

Interactive

193 views 6 this week
no commentswrite comment
1 2 3 4 5
1 last vote to show rating
add to favorites
×
Save as Personal and add changes to this tab that will be seen only by you. Learn more ›
×
You can save this tab as Personal to edit and correct it or add notes. All changes will be seen only by you. Learn more »
launch autoscroll
font size
0
reset
guitar tuner
edit
Autoscroll
slow
fast
+/-
esc
set tempo
stop
About this tab version
I'm not sure if this is the exact correct tab however it does fit in with the song pretty well please have a go and find out and let me know what you think. Was this info helpful? Yes No
[Intro]
*No Bass*


[Verse] *Start from "There's and infestation..." *Those are 12's and not 1's and 2's* 
G|----------------------|------------------------|----------------------------------------|
D|----------------------|------------------------|----------------------------------------|
A|----------------------|------------------------|----------------------------------------|
D|7/12-12-12-12-12-13-12|-7/12-12-12-12-12-12-13-|7/12-12-12-12-12-12-12-13-12-12-12-12/0-|

[Chorus]*No bass for the first bit, come in at "For me, for me, uh!"* 

G|-------------------------------------------------------------------------|
D|-------------------------------------------------------------------------|
A|-------------------------------------------------------------------------| (x2)
D|-8-8-8-8-8-8-8-8-5-5-5-5-5-5-5-5-0-0-0-0-0-0-0-0-10-10-10-10-10-10-10-10-|

[Verse] *Start from "There's and infestation..." *Those are 12's and not 1's and 2's* 
G|----------------------|------------------------|----------------------------------------|
D|----------------------|------------------------|----------------------------------------|
A|----------------------|------------------------|----------------------------------------|
D|7/12-12-12-12-12-13-12|-7/12-12-12-12-12-12-13-|7/12-12-12-12-12-12-12-13-12-12-12-12/0-|


[Chorus]
G|-------------------------------------------------------------------------|
D|-------------------------------------------------------------------------|
A|-------------------------------------------------------------------------| (x2)
D|-8-8-8-8-8-8-8-8-5-5-5-5-5-5-5-5-0-0-0-0-0-0-0-0-10-10-10-10-10-10-10-10-|

*After this chorus there is a breakdown, you can play this* 

G|-------------------------------------------------|
D|----8-----8---------5-5--------------------------|
A|----------------------------5-------5-5-7-7-7-7--| (x2) 
D|-8-8--8--8-----5-5-5-----0--0---0--0-------------|

"Death inspires me like a dog...Inspires a rabbit..." 
G|----------------------------|
D|----------------------------|
A|----------------------------| (x2)
D|-0~-------------------------|

[Chorus] *At this point you can faintly play this alongside the tambourine as a sort of build up but it's 
optional if not play the chorus as normal*
G|-------------------------------------------------------------------------|
D|-------------------------------------------------------------------------|
A|-------------------------------------------------------------------------| (x2)
D|-8-8-8-8-8-8-8-8-5-5-5-5-5-5-5-5-0-0-0-0-0-0-0-0-10-10-10-10-10-10-10-10-|

[Breakdown]
G|-----------------------------------------------|
D|----8-----8---------5-5------------------------|
A|----------------------------5-------5-5--7-7-7--| (x4) 
D|-8-8--8--8-----5-5-5-----0--0---0--0------------|

[Outro]

G|----------|
D|----------|
A|----------|
D|-0~-------|

************************************
| /   Slide up
| \   Slide down
| ~   Let it ring
************************************

            
            
Suggest correction
Creating personal tab
Creating personal tab
You can edit any tab online and save it as your Personal.

You can edit, replace or remove any tab part or add personal notes – all changes will be seen only by you.

Personal tabs can be accessed anytime from any device, even offline.
Learn more »
Give kudos to tab author, rate the tab!
1 2 3 4 5
comments
print report bad tab
guest
You may want to rate the tab now too:
select rating
Wanna post a correction for this tab? Suggest correction