Oops, an error
Loading. Please wait.

Holding On To You bass

version 1
version 1

Whole song

  • The other tabs i've looked at have overly complica... Show more

Interactive

6,193 views 42 this week
2 commentsread comments
1 2 3 4 5
x 7
add to favorites
×
Save as Personal and add changes to this tab that will be seen only by you. Learn more ›
×
You can save this tab as Personal to edit and correct it or add notes. All changes will be seen only by you. Learn more »
launch autoscroll
font size
0
reset
guitar tuner
edit
Autoscroll
slow
fast
+/-
esc
set tempo
stop
Author
Difficulty
intermediate
Holding On To You - Twenty One Pilots
Tuning: Standard

*Tyler's rap*

0:21 Verse 1
G|--------------------------------|
D|-16-16\--4-4/--9-9\--2-2/-------| X4
A|--------------------------------|
E|--------------------------------|

0:43 Chorus
G|---------------------------------------------------------------------------|
D|-9-9-9-9-11-11-11-11-6-6-6-6-4-4-4-4-2-2-2-2-6-6-6-6-9-9-9-9-4-4-4-4-------| X2
A|---------------------------------------------------------------------------|
E|---------------------------------------------------------------------------|

1:04 Tag
G|----------------------------|
D|-16-16\--4-4/--9-9\--2-2/---| X2
A|----------------------------|
E|----------------------------|

1:26 Verse 2
G|----------------------------|
D|-16-16\--4-4-/--9-9\--2-2/--| X2
A|----------------------------|
E|----------------------------|

G|---------------------|
D|-16-16\--4--9-9\--2--| X2
A|---------------------|
E|---------------------|

1:46 
G|---------------------------------------------------------------------------|
D|-9-9-9-9-11-11-11-11-6-6-6-6-4-4-4-4-2-2-2-2-6-6-6-6-9-9-9-9-4-4-4-4-------| X2
A|---------------------------------------------------------------------------|
E|---------------------------------------------------------------------------|

2:18 Bridge
G|---------------------|
D|---------------------|
A|---------------------| X3
E|-8/-15----8/-15-16---|

G|------------------------------------------------------------------------------------------|
D|------------------------------------------------------------------------------------------| X2
A|------------------------------------------------------------------------------------------|
E|-8-8-8-8-15-15-15-15-15-15-15-15-15-15-15-15-8-8-8-8-15-15-15-15-15-16-16-16-16-16-16-16--|

*Tyler's rap*

3:33 Verse 3
G|-----------------------------|
D|-16-16\--4-4/--9-9\--2-2/----| X3
A|-----------------------------|
E|-----------------------------|

G|-------------------------|
D|-16-16\--4-4/--9-9\--2---|
A|-------------------------|
E|-------------------------|

3:54 
G|--------------------------------|
D|-16-16\--4-4/--9-9\--2-2/-------| X4
A|--------------------------------|
E|--------------------------------|



************************************

| /  Slide up
| \  Slide down
| h  Hammer-on

************************************

            
            
Suggest correction
Creating personal tab
Creating personal tab
You can edit any tab online and save it as your Personal.

You can edit, replace or remove any tab part or add personal notes – all changes will be seen only by you.

Personal tabs can be accessed anytime from any device, even offline.
Learn more »
comments
print report bad tab
2 comments total.
0 reply
dimike96 10 Dec 20, 2015 02:04 PM

Lack of accuracy. Clearly wrong. Sounds nothing like song. Word words djfjfjdjdjsj for t'y ehdjfue djdisieinrnr. Completely inaccurate. Unless some completely obscure tuning is used and not mentioned

0 reply
Iamaguy 244 Sep 01, 2016 04:48 PM

this is pretty bad

guest
You may want to rate the tab now too:
select rating
Wanna post a correction for this tab? Suggest correction