Oops, an error
Loading. Please wait.

Ode To Sleep bass

version 2
version 2

Whole song

  • This version is unique and accurate, and it is totally original.

Interactive

592 views 1 this week
1 commentread comment
1 2 3 4 5
x 5
add to favorites
×
Save as Personal and add changes to this tab that will be seen only by you. Learn more ›
×
You can save this tab as Personal to edit and correct it or add notes. All changes will be seen only by you. Learn more »
launch autoscroll
font size
0
reset
guitar tuner
edit
Autoscroll
slow
fast
+/-
esc
set tempo
stop
Author
Difficulty
About this tab version
This version is unique and accurate, and it is totally original. Was this info helpful? Yes No
[Intro] (x2)
G|---------------------------------------------------------------------------|
D|---------------7--------------------7--------------------------------------|
A|----7---7-9-10---10-9-7---7---7-9-10---10-9-7---7--------------------------|
E|--0---0-----------------0---0------------------0---------------------------|

G|---------------------------------------------------------------------------|
D|---------------7--------------------7--------------------------------------|
A|----7---7-9-10---10-9-7---7---7-9-10---10-9-7----7-------------------------|
E|--8---8-----------------8---8------------------8---0-----------------------|

[Verse]
G|---------------------------------------------------------------------------|
D|---------------------------------------------------------------------------|
A|---------------------------------------------------------------------------|
E|--(9)~---------------------------------------------------------------------|

[Pre-Chorus]
G|---------------------------------------------------------------------------| (x2)
D|---------------------------------------------------------------------------|
A|-----------------------2---------------------------------------------------|
E|--0-0-0-0--0-0--0-2--3-----------------------------------------------------|
  (I'm pleading please...)
 
G|---------------------------------------------------------------------------| (x2)
D|---------------------------------------------------------------------------|
A|--------------------0-2----------------------------------------------------|
E|--3-3-3-3--3-3--3-2--------------------------------------------------------|
   (I don't wanna be the one...)

[Interlude]
G|---------------------------------------------------------------------------|
D|--2---2-2-2-0--2---2-2-2-0--2---2-2-2-0--2~--------------------------------|
A|---------------------------------------------------------------------------|
E|--0------------0------------0------------0~--------------------------------|

[Chorus]
G|------------------------------------------------------------7-7-7h9p7------| (x2)
D|--5-5-5-5-5-5-5-5-5-5-5h7p5-4-4---------------------7-7-7-7----------------|
A|------------------------------------7-7-7-7-7-7-7-7------------------------|
E|--------------------------------7-7----------------------------------------|

G|---------------------------------------------------------------------------|
D|--5-5-5-5-5-5-5-5-5-5-5-5-5-5-5-5------------------------------------------|
A|---------------------------------------------------------------------------|
E|---------------------------------------------------------------------------|

G|---------------------------------------------------------------------------| (x4)
D|--5--5-5--5----------------------------------------------------------------|
A|-------------3--3-3--3--2--2-2-2--5--5-5--5--------------------------------|
E|---------------------------------------------------------------------------|
  (Why...)

G|---------------------------------------------------------------------------|
D|---------------------------------------------------------------------------|
A|--7------7------7--7--7--7-------------------------------------------------|
E|---------------------------------------------------------------------------|

[Interlude] (x2)
G|---------------------------------------------------------------------------|
D|---------------7--------------------7--------------------------------------|
A|----7---7-9-10---10-9-7---7---7-9-10---10-9-7---7--------------------------|
E|--0---0-----------------0---0------------------0---------------------------|

G|---------------------------------------------------------------------------|
D|---------------7--------------------7--------------------------------------|
A|----7---7-9-10---10-9-7---7---7-9-10---10-9-7----7-------------------------|
E|--8---8-----------------8---8------------------8---0-----------------------|

No bass during verse

[Pre-Chorus]

G|---------------------------------------------------------------------------| (x2)
D|---------------------------------------------------------------------------|
A|-----------------------2---------------------------------------------------|
E|--0-0-0-0--0-0--0-2--3-----------------------------------------------------|
 
G|---------------------------------------------------------------------------| (x2)
D|---------------------------------------------------------------------------|
A|--------------------0-2----------------------------------------------------|
E|--3-3-3-3--3-3--3-2--------------------------------------------------------|

[Chorus]
G|------------------------------------------------------------7-7-7h9p7------| (x2)
D|--5-5-5-5-5-5-5-5-5-5-5h7p5-4-4---------------------7-7-7-7----------------|
A|------------------------------------7-7-7-7-7-7-7-7------------------------|
E|--------------------------------7-7----------------------------------------|

G|---------------------------------------------------------------------------|
D|--5-5-5-5-5-5-5-5-5-5-5-5-5-5-5-5------------------------------------------|
A|---------------------------------------------------------------------------|
E|---------------------------------------------------------------------------|

G|---------------------------------------------------------------------------| (x6)
D|--5--5-5--5----------------------------------------------------------------|
A|-------------3--3-3--3--2--2-2-2--5--5-5--5--------------------------------|
E|---------------------------------------------------------------------------|
  (Why...)

[Interlude]
G|---------------------------------------------------------------------------|
D|--5---------------5--------------------------------------------------------|
A|------3---2---5-------3---2---5--------------------------------------------|
E|---------------------------------------------------------------------------|

[Outro]
G|---------------------------------------------------------------------------|
D|---------------------------------------------------------------------------|
A|--(5)~---------------------------------------------------------------------|
E|---------------------------------------------------------------------------|

Stay Alive


************************************

| ~  Vibrato
| h  Hammer-on
| p  Pull-off

************************************

            
            
Suggest correction
Creating personal tab
Creating personal tab
You can edit any tab online and save it as your Personal.

You can edit, replace or remove any tab part or add personal notes – all changes will be seen only by you.

Personal tabs can be accessed anytime from any device, even offline.
Learn more »
comments
print report bad tab
1 comment total.
0 reply
ClaytonJoseph2042 10 Sep 16, 2017 01:03 PM

Nice, especially on the coverage of the synth bass

guest
You may want to rate the tab now too:
select rating
Wanna post a correction for this tab? Suggest correction