Oops, an error
Loading. Please wait.

Taxi Cab bass

version 2
version 2

Whole song

Interactive

673 views 12 this week
1 commentread comment
1 2 3 4 5
1 last vote to show rating
add to favorites
×
Save as Personal and add changes to this tab that will be seen only by you. Learn more ›
×
You can save this tab as Personal to edit and correct it or add notes. All changes will be seen only by you. Learn more »
launch autoscroll
font size
0
reset
guitar tuner
edit
Autoscroll
slow
fast
+/-
esc
set tempo
stop
Author
Difficulty
-------------------------------------------------------------------------------
                             TAXI CAB - twenty one pilots
-------------------------------------------------------------------------------
Tabbed by: daisya

This is my second tab so sorry if there are some errors in places.
It may look messy, but if you listen to the track you should hear each bass pattern quite clearly.

|-/

Tuning: Standard EADG

NO BASS UNTIL:

Sometimes we will die...
G|-------------------------------------------------------------------|
D|-------------------------------------------------------------------|
A|-2-2-2-2-2-2-2-2-----------------2-2-2-2-2-2-2-2-------------------|
E|-----------------0-0-0-0-0-0-0-0-----------------2-2-2-2-0-0-0-0---|

And if I'm not there and I'm far away...
G|-----------------------------------|
D|-----------------------------------|
A|-2-2-2-2-2-2-2-2-------------------|
E|-----------------0-0-0-0-0-0-0-0---|

Don't be afraid...
G|-----------------------------|
D|-----------------------------|
A|-----------------------------|
E|-5~--9~--2~-----5~--9~--2~---|

[INTERLUDE]
G|-------------------------------------------------------------------|
D|-------------------------------------------------------------------|
A|-4/9--12\7--5-5--12--12--14-14-16\9--12\7--5-5--12--12--14-14-16---|
E|-------------------------------------------------------------------|

I wanna strip myself of breath...
G|-------------------------------------------------------------------|
D|-------------------------------------------------------------------|
A|-9--12\7--5-5--12--12--14-14-16\9--12\7--5-5--12--12--14-14-16-----|
E|-------------------------------------------------------------------| x2

Sometimes we will die...
G|-------------------------------------------------------------------|
D|-------------------------------------------------------------------|
A|-2-2-2-2-2-2-2-2-----------------2-2-2-2-2-2-2-2-------------------|
E|-----------------0-0-0-0-0-0-0-0-----------------2-2-2-2-0-0-0-0---|

And if I'm not there and I'm far away...
G|-----------------------------------|
D|-----------------------------------|
A|-2-2-2-2-2-2-2-2-------------------|
E|-----------------0-0-0-0-0-0-0-0---|

Don't be afraid...
G|-------------------------------|
D|-------------------------------|
A|-------------------------------|
E|-5~--9~--2~---2-4-5~--9~--2~---|

[INTERLUDE]      
G|--------------------------------------------------------------------|
D|--------------------------------------------------------------------|
A|--------------------------------------------------------------------|
E|-/10~--17\5~----9--9----2~---0-2-2----4--5~----9--9----2~---0-2-2---|

So the hearse ran out of gas...
G|--------------------------------------------------------------|
D|--------------------------------------------------------------|
A|--------------------------------------------------------------|
E|-4--5~----9--9----2~---0-2-2----4--5~----9--9----2~---0-2-2---| x5

Don't be afraid... (the one that he holds on)
G|---------------------------------------|
D|---------------------------------------|
A|---------------------------------------|
E|-4--5~----9--9----2~---2--0--2--0--2---|

G|-------------------------------------------------------------------|
D|-------------------------------------------------------------------|
A|-4/9--12\7--5-5--12--12--14-14-16\9--12\7--5-5--12--12--14-14-16---|
E|-------------------------------------------------------------------|

[NO DRUMS, JUST PIANO AND BASS]
G|-------------------------------------------------------------------|
D|-------------------------------------------------------------------|
A|-9--12\7--5-5--12--12--14-14-16\9--12\7--5-5--12--12--14-14-16~----|
E|-------------------------------------------------------------------|


| /  slide up
| \  slide down
| h  hammer-on
| p  pull-off
| ~  vibrato
| +  harmonic
| x  Mute note
===============================================================================

            
            
Suggest correction
Creating personal tab
Creating personal tab
You can edit any tab online and save it as your Personal.

You can edit, replace or remove any tab part or add personal notes – all changes will be seen only by you.

Personal tabs can be accessed anytime from any device, even offline.
Learn more »
Give kudos to tab author, rate the tab!
1 2 3 4 5
comments
print report bad tab
1 comment total.
0 reply
kasper26 10 Oct 15, 2017 11:45 AM

This is way better than the first version. Well done!

guest
You may want to rate the tab now too:
select rating
Wanna post a correction for this tab? Suggest correction