Oops, an error
Loading. Please wait.
We have an official Truce tab made by UG professional guitarists. Check out the tab »
×

Truce ukulele

version 3
version 3

Whole song

Interactive

1,171 views 60 this week
2 commentsread comments
1 2 3 4 5
x 6
add to favorites
×
Save as Personal and add changes to this tab that will be seen only by you. Learn more ›
×
You can save this tab as Personal to edit and correct it or add notes. All changes will be seen only by you. Learn more »
launch autoscroll
font size
0
reset
transpose
0
reset
simplify chords
display chords
guitar tuner
edit
Autoscroll
slow
fast
+/-
esc
set tempo
stop
Author
Difficulty
intermediate
About this tab version
This is heavily based off of GuiTygro's Truce - Ukulele Tutorial Part 2 on youtube (https://www.youtube.com/watch?v=1R1DOJZMMA0) with the fingerpicking incorporated in. Was this info helpful? Yes No
Strumming
There is no strumming pattern for this song yet. and get +5 IQ
  G                 G     Ebdim                 G
A|-----2-------2---2---2-3-0---0-2-10-9-7-7-5-2-2-|
E|-3-------3-------3-------2-------0------0-----3-|
C|---2---2---2---2-2-2-----3-3-----0------0-----2-|
G|-----------------0-------2-------0------0-----0-|
  Now the night is coming to an end.
  I will fear the night again.

  G                      Em  C6  C6    G
A|---2-------2---0-0-0/2-2-5-0---0---2-2-|
E|-------3-------3-------3---0-3-0-----3-|
C|-2---2---2---2-4-------4---0---0-2---2-|
G|---------------0-------0---0---0-----0-|

  G              G     Ebdim                  G
A|---2-------2---2---2-3-0---0-2-10-9-7-7-5-2-2-|
E|-------3-------3-------2-------0------0-----3-|
C|-2---2---2---2-2-2-----3-3-----0------0-----2-|
G|---------------0-------2-------0------0-----0-|
  The sun will rise and we will try again.
  I hope I'm not my only friend.

  G                      Em  C6  C6    G
A|---2-------2---0-0-0/2-2-5-0---0---2-2-|
E|-------3-------3-------3---0-3-0-----3-|
C|-2---2---2---2-4-------4---0---0-2---2-|
G|---------------0-------0---0---0-----0-|

   D         C                 Csus2     D         C
A|-0-0-0-----3---------2-----2---3-2-0-0-0-0-0-----3---------|
E|-2-----2---0-3-3-3-0---3-------3---3---2-----2---0-3-3-3-0-|
C|-2-------2-0-------------2---2-2---2---2-------2-0---------|
G|-2---------0-------------------0---0---2---------0---------|
  Stay alive, stay alive, for me. You will die, but now your life, is

   G  D  Em D  C       Cm      G
A|-2--0--2--0--3---3---3---3---2---2-------2---|
E|-3--2--3--2--0-------3-------3-------3-------|
C|-2--2--4--2--0-0---0-3-3---3-2-2---2---2---2-|
G|-0--2--0--2--0-------0-------0---------------|
  Free, take pride in what is sure to die.

[repeat from beginning with the secondary lyrics]

           Em  C6  C6    G                      Em  C6   C6    G
A|-0-0-0/2-2-5-0---0---2-2---2-------2---0-0-0/2-2-5-0---0---2-2-|
E|-3-------3---0-3-0-----3-------3-------3-------3---0-3-0-----3-|
C|-4-------4---0---0-2---2-2---2---2---2-4-------4---0---0-2---2-|
G|-0-------0---0---0-----0---------------0-------0---0---0-----0-|

            
            
Suggest correction
Creating personal tab
Creating personal tab
You can edit any tab online and save it as your Personal.

You can edit, replace or remove any tab part or add personal notes – all changes will be seen only by you.

Personal tabs can be accessed anytime from any device, even offline.
Learn more »
comments
print report bad tab
2 comments total.
0 reply
jumpballmoll 219 Apr 20, 2017 01:41 PM

uh its not a C6 its actually an Am7

0 reply
margauxxhickman 79 Apr 27, 2017 11:37 AM

molly not like this

guest
You may want to rate the tab now too:
select rating
Wanna post a correction for this tab? Suggest correction