Oops, an error
Loading. Please wait.
We have an official We Dont Believe Whats On Tv tab made by UG professional guitarists. Check out the tab »
×
14,034 views 18 this week
1 commentread comment
1 2 3 4 5
x 10
add to favorites
×
Save as Personal and add changes to this tab that will be seen only by you. Learn more ›
×
You can save this tab as Personal to edit and correct it or add notes. All changes will be seen only by you. Learn more »
launch autoscroll
font size
0
reset
transpose
0
reset
display chords
guitar tuner
edit
Autoscroll
slow
fast
+/-
esc
set tempo
stop
Author
Difficulty
intermediate
Strumming
There is no strumming pattern for this song yet. and get +5 IQ
This is as close as I could get it to what Tyler plays on the recording by Red Bull Sound Space at KROQ. Its a
bit harder than the normal chords, but I personally think it sounds better. Enjoy!

[Intro]


A|--2/4/2--0---0-0-0-0--2-2-2-2--0-0-0-0-0--|  x2
E|-----------2-2-2-2-2--0-0-0-0--0-0-0-0-0--|
C|-------------1-1-1-1--4-4-4-4--1-1-1-1-1--|
G|-------------2-2-2-2--1-1-1-1--2-2-2-2-2--|
                F#m       E         A

(The little tab thing is just repeated throughout the verse)


A|--2/4/2--0---0-0-0-0--2-2-2-2--0-0-0-0-0--|  x2
E|-----------2-2-2-2-2--0-0-0-0--0-0-0-0-0--|
C|-------------1-1-1-1--4-4-4-4--1-1-1-1-1--|
G|-------------2-2-2-2--1-1-1-1--2-2-2-2-2--|
                F#m       E         A

[Verse 1]

We don't believe what's on TV,
Because it's what we want to see,
And what we want, we know we can't believe,
We have all learned to kill our dreams.


[Pre-Chorus]

   Bm                F#m                     A
I need to know that when I fail you'll still be here,
       Bm                       D
'Cause if you stick around I'll sing you pretty sounds,
                E
And we'll make money selling your hair.


[Chorus]

C#                  D   
I don't care what's in your hair,
        A                          E
I just want to know what's on your mind,
  C#                      D
I used to say, "I want to die before I'm old,"
      A                          E  
But because of you I might think twice.


A|--2/4/2--0---0-0-0-0--2-2-2-2--0-0-0-0-0--|  x2
E|-----------2-2-2-2-2--0-0-0-0--0-0-0-0-0--|
C|-------------1-1-1-1--4-4-4-4--1-1-1-1-1--|
G|-------------2-2-2-2--1-1-1-1--2-2-2-2-2--|
                F#m       E         A

(The little tab thing is just repeated throughout the verse)


A|--2/4/2--0---0-0-0-0--2-2-2-2--0-0-0-0-0--|  x2
E|-----------2-2-2-2-2--0-0-0-0--0-0-0-0-0--|
C|-------------1-1-1-1--4-4-4-4--1-1-1-1-1--|
G|-------------2-2-2-2--1-1-1-1--2-2-2-2-2--|
                F#m       E         A


[Verse 2]

What if my dream does not happen,
Would I just change what I've told my friends,
I don't want to know who I would be,
When I wake up from a dreamer's sleep.


[Pre-Chorus]

   Bm                F#m                     A
I need to know that when I fail you'll still be here,
       Bm                       D
'Cause if you stick around I'll sing you pretty sounds,
                E
And we'll make money selling your hair.


[Chorus]

C#                  D   
I don't care what's in your hair,
        A                          E
I just want to know what's on your mind,
  C#                      D
I used to say, "I want to die before I'm old,"
      A                          E  
But because of you I might think twice.

C#                  D   
I don't care what's in your hair,
        A                          E
I just want to know what's on your mind,
  C#                      D
I used to say, "I want to die before I'm old,"
      A                          E  
But because of you I might think twice.


[Hook]

F#m   E     A
Oh oh oh oh oh   
F#m   E     A
Oh oh oh oh oh 
F#m   E     A
Oh oh oh oh no
F#m   E     A
No no no no no 


A|--2/4/2--0---0-0-0-0--2-2-2-2--0-0-0-0-0--|  x2
E|-----------2-2-2-2-2--0-0-0-0--0-0-0-0-0--|
C|-------------1-1-1-1--4-4-4-4--1-1-1-1-1--|
G|-------------2-2-2-2--1-1-1-1--2-2-2-2-2--|
                F#m       E         A


A|--2/4/2--0---0-0-0-0--2-2-2-2--0-0-0-0-0--|  x2
E|-----------2-2-2-2-2--0-0-0-0--0-0-0-0-0--|
C|-------------1-1-1-1--4-4-4-4--1-1-1-1-1--|
G|-------------2-2-2-2--1-1-1-1--2-2-2-2-2--|
                F#m       E         A
 
 We don't believe what's on TV

|-/

-Bella




A|--2/4/2--0---0-0-0-0--2-2-2-2--0-0-0-0-0--|  x2
E|-----------2-2-2-2-2--0-0-0-0--0-0-0-0-0--|
C|-------------1-1-1-1--4-4-4-4--1-1-1-1-1--|
G|-------------2-2-2-2--1-1-1-1--2-2-2-2-2--|

            
            
Suggest correction
Creating personal tab
Creating personal tab
You can edit any tab online and save it as your Personal.

You can edit, replace or remove any tab part or add personal notes – all changes will be seen only by you.

Personal tabs can be accessed anytime from any device, even offline.
Learn more »
comments
print report bad tab
1 comment total.
0 reply
loony_with_an_axe 10 Dec 27, 2017 06:17 PM

I think it sounds good if you transpose +3 it sounds good. (And it’s all beginner chords)

guest
You may want to rate the tab now too:
select rating
Wanna post a correction for this tab? Suggest correction