Oops, an error
Loading. Please wait.
We have an official Were Not Gonna Take It tab made by UG professional guitarists. Check out the tab »
×
27,954 views 63 this week
no commentswrite comment
1 2 3 4 5
x 9
add to favorites
×
Save as Personal and add changes to this tab that will be seen only by you. Learn more ›
×
You can save this tab as Personal to edit and correct it or add notes. All changes will be seen only by you. Learn more »
launch autoscroll
font size
0
reset
guitar tuner
backing track
0:00
0:00
edit
Autoscroll
slow
fast
+/-
esc
set tempo
stop
Author
Difficulty
We're Not Gonna Take It - Twisted Sister
Tabbed By : Dan_man987
Tuning: Standard

[Intro]
G:|-------------------------------|-------------------------------|-
D:|-------------------------------|-------------------------------|-
A:|--7----7-6----6-4----4-2----2--|--7----7-6----6-4----4-2----2--|-
E:|-------------------------------|-------------------------------|-

[Verse 1]
G:|---------------------------------|---------------------------------|-
D:|----------------------------4----|----------------------------2----|-
A:|--------------4---------4-6---6--|--------------4---------2-4---4--|-
E:|--0-0-4-0-5-0---0-7-7-7----------|--0-0-4-0-5-0---0-5-5-5----------|-

G:|---------------------------------|---------------------------------|-
D:|----------------------------4----|---------------------------------|-
A:|--------------4---------4-6---6--|----------------4----------------|-
E:|--0-0-4-0-5-0---0-7-7-7----------|--0-0-4-0-5-0-4----7-7-7-7-7-7-7-|-

G:|---------------------------------|---------------------------------|-
D:|----------------------------4----|----------------------------2----|-
A:|--------------4---------4-6---6--|--------------4---------2-4---4--|-
E:|--0-0-4-0-5-0---0-7-7-7----------|--0-0-4-0-5-0---0-5-5-5----------|-

G:|---------------------------------|---------------------------------|-
D:|----------------------------4----|---------------------------------|-
A:|--------------4---------4-6---6--|----------------4----------------|-
E:|--0-0-4-0-5-0---0-7-7-7----------|--0-0-4-0-5-0-4----7-7-7-7-7-7-7-|-

[Chorus]
G:|--------------------------------|--------------------------------|-
D:|---------------------------4----|-----------------------4-5-4-2--|-
A:|--------------4--------4-6---6--|--------------4-----------------|-
E:|--0-0-4-0-5-0---7--7-7----------|--0-0-4-0-5-0---5--5-5----------|-

G:|--------------------------------|-------------------------------|-
D:|---------------------------4----|-------------------------------|-
A:|--------------4--------4-6---6--|--7----7-6----6-4----4-2----2--|-
E:|--0-0-4-0-5-0---7--7-7----------|-------------------------------|-

[Verse 2]
G:|---------------------------------|---------------------------------|-
D:|----------------------------4----|----------------------------2----|-
A:|--------------4---------4-6---6--|--------------4---------2-4---4--|-
E:|--0-0-4-0-5-0---0-7-7-7----------|--0-0-4-0-5-0---0-5-5-5----------|-

G:|---------------------------------|---------------------------------|-
D:|----------------------------4----|---------------------------------|-
A:|--------------4---------4-6---6--|----------------4----------------|-
E:|--0-0-4-0-5-0---0-7-7-7----------|--0-0-4-0-5-0-4----7-7-7-7-7-7-7-|-

G:|---------------------------------|---------------------------------|-
D:|----------------------------4----|----------------------------2----|-
A:|--------------4---------4-6---6--|--------------4---------2-4---4--|-
E:|--0-0-4-0-5-0---0-7-7-7----------|--0-0-4-0-5-0---0-5-5-5----------|-

G:|---------------------------------|---------------------------------|-
D:|----------------------------4----|---------------------------------|-
A:|--------------4---------4-6---6--|----------------4----------------|-
E:|--0-0-4-0-5-0---0-7-7-7----------|--0-0-4-0-5-0-4----7-7-7-7-7-7-7-|-

[Break]
G:|-------------------------------|-------------------------------|-
D:|-------------------------------|-------------------------------|-
A:|5-5-5-5-5-5-5-5-4-4-4-4-2-2-2-2|5-5-5-5-5-5-5-5-4-4-4-4-2-2-2-2|-
E:|-------------------------------|-------------------------------|-

G:|-------------------------------|-------------------------------|-
D:|-------------------------------|-------------------------------|-
A:|-------------------------------|-----------------2-2-2-2-2-2-2-|-
E:|--0----0--------1----1---------|--2----2-----------------------|-

G:|-----------------|
D:|-----------------|
A:|-2-2-2-2-2-2-2-2-|
E:|-----------------|

[Chorus]
G:|--------------------------------|--------------------------------|-
D:|---------------------------4----|-----------------------4-5-4-2--|-
A:|--------------4--------4-6---6--|--------------4-----------------|-
E:|--0-0-4-0-5-0---7--7-7----------|--0-0-4-0-5-0---5--5-5----------|-

G:|--------------------------------|--------------------------------|-
D:|---------------------------4----|--------------------------------|-
A:|--------------4--------4-6---6--|----------------4---------------|-
E:|--0-0-4-0-5-0---7--7-7----------|--0-0-4-0-5-0-4----7-7-7-7-7-7-7|-

G:|--------------------------------|--------------------------------|-
D:|---------------------------4----|-----------------------4-5-4-2--|-
A:|--------------4--------4-6---6--|--------------4-----------------|-
E:|--0-0-4-0-5-0---7--7-7----------|--0-0-4-0-5-0---5--5-5----------|-

G:|--------------------------------|--------------------------------|-
D:|---------------------------4----|--------------------------------|-
A:|--------------4--------4-6---6--|--7----7-6----6-4----4-2-----2--|-
E:|--0-0-4-0-5-0---7--7-7----------|--------------------------------|-

[Guitar solo section]
G:|---------------------------------|---------------------------------|-
D:|----------------------------4----|----------------------------2----|-
A:|--------------4---------4-6---6--|--------------4---------2-4---4--|-
E:|--0-0-4-0-5-0---0-7-7-7----------|--0-0-4-0-5-0---0-5-5-5----------|-

G:|---------------------------------|---------------------------------|-
D:|----------------------------4----|---------------------------------|-
A:|--------------4---------4-6---6--|----------------4----------------|-
E:|--0-0-4-0-5-0---0-7-7-7----------|--0-0-4-0-5-0-4----7-7-7-7-7-7-7-|-

G:|---------------------------------|---------------------------------|-
D:|----------------------------4----|----------------------------2----|-
A:|--------------4---------4-6---6--|--------------4---------2-4---4--|-
E:|--0-0-4-0-5-0---0-7-7-7----------|--0-0-4-0-5-0---0-5-5-5----------|-

G:|---------------------------------|---------------------------------|-
D:|----------------------------4----|---------------------------------|-
A:|--------------4---------4-6---6--|--7----7-6----6-4----4-2----2----|-
E:|--0-0-4-0-5-0---0-7-7-7----------|---------------------------------|-

[Break]
G:|-------------------------------|-------------------------------|-
D:|-------------------------------|-------------------------------|-
A:|5-5-5-5-5-5-5-5-4-4-4-4-2-2-2-2|5-5-5-5-5-5-5-5-4-4-4-4-2-2-2-2|-
E:|-------------------------------|-------------------------------|-

G:|-------------------------------|-------------------------------|-
D:|-------------------------------|-------------------------------|-
A:|-------------------------------|-----------------2-2-2-2-2-2-2-|-
E:|--0----0--------1----1---------|--2----2-----------------------|-

G:|-----------------|
D:|-----------------|
A:|-2-2-2-2-2-2-2-2-|
E:|-----------------|

Here, there is a break while the vocals and drums play alone.
On the studio vresion of the song, the chorus is then repeated untill fade out.
When this song is played live, the chorus is usually repeated 3 times,
followed by this ending:

G:|---------------------------------|----------------------------|-
D:|---------------------------------|----------------------------|-
A:|--7----7-6----6-4----4-2----2----|----------------------------|-
E:|---------------------------------|--5----5-4----4-2----2-0----|-

            
            
Suggest correction
Creating personal tab
Creating personal tab
You can edit any tab online and save it as your Personal.

You can edit, replace or remove any tab part or add personal notes – all changes will be seen only by you.

Personal tabs can be accessed anytime from any device, even offline.
Learn more »
comments
print report bad tab
guest
You may want to rate the tab now too:
select rating
Wanna post a correction for this tab? Suggest correction