Oops, an error
Loading. Please wait.
We have an official What You Know tab made by UG professional guitarists. Check out the tab »
×

What You Know tab

version 1
version 1

Whole song

  • As I see it, this is a more accurate version than the others existing.
  • This is a full length tab, and the chorus has a lo... Show more

Interactive

407,177 views 444 this week
22 commentsread comments
1 2 3 4 5
x 35
add to favorites
×
Save as Personal and add changes to this tab that will be seen only by you. Learn more ›
×
You can save this tab as Personal to edit and correct it or add notes. All changes will be seen only by you. Learn more »
launch autoscroll
font size
0
reset
how to read this tab
guitar tuner
backing track
0:00
0:00
edit
Autoscroll
slow
fast
+/-
esc
set tempo
stop
Song:   What You Know
Artist: Two Door Cinema Club
Album:  Tourist History

Tabber: Lionel Ringenbach
Email:  ucodia@live.com
Date:   April 7th, 2010

I did not transcribed how much times and in which order these parts have to be
played but listen to the song one or two times and you will get it easily.

This is my first tab, so please, be kind !



Guitar 1: standard tuning, capo on 9th fret, light distorsion


[Intro/Chorus]

Listen to the song and strum these chords

     Am7   C

e|----0----0----|
B|----1----1----|
G|----0----0----|
D|----2----2----|
A|----0----3----|
E|----x----x----|


[Verse]

     Am7   G6   Em   F

e|----0----0----0----1----|
B|----1----0----0----1----|
G|----0----0----0----2----|
D|----2----0----2----3----|
A|----0----2----2----3----|
E|----x----3----0----1----|


[Bridge]

This part is a bit too noisy to be completely transcribed but this is how it starts

e|---------------------------|
B|-----------10------------10|
G|---------------------------|
D|---------------------------|
A|--9--9-9--9-----9--9-9--9--|
E|---------------------------|



Guitar 2: standard tuning, no capo, clean


[Intro/Chorus]

e|--------14-----------------14-----------------14----------17-16-16-17-16-----|
B|--14-17----17-14-14--14-17----17----14--14-17----17-14-14----------------14--|
G|---------------------------------16------------------------------------------|
D|-----------------------------------------------------------------------------|
A|-----------------------------------------------------------------------------|
E|-----------------------------------------------------------------------------|

e|--------14-----------------14-----------------14----------17-16-16-17-16-----|
B|--14-17----17-14-14--14-17----17--------14-17----17-14-14----------------14--|
G|---------------------------------16-14---------------------------------------|
D|-----------------------------------------------------------------------------|
A|-----------------------------------------------------------------------------|
E|-----------------------------------------------------------------------------|


[Verse]

Play this part 3 times

e|-----------------------------------|
B|--------/19-19-19\17-17-17-17-17\--|
G|--11-11----------------------------|
D|-----------------------------------|
A|-----------------------------------|
E|-----------------------------------|

And then this one

e|----------------------------|
B|----------------------------|
G|--11-11-11-1111-11-1111-11--|
D|----------------------------|
A|----------------------------|
E|----------------------------|


Chords

Am7 (x 0 2 0 1 0)
C   (x 3 2 0 1 0)
G6  (3 2 0 0 0 0)
Em  (0 2 2 0 0 0)
F   (1 3 3 2 1 1)



************************************

| x  Dead note
| /  Slide up
| \  Slide down

************************************

            
            
Suggest correction
Creating personal tab
Creating personal tab
You can edit any tab online and save it as your Personal.

You can edit, replace or remove any tab part or add personal notes – all changes will be seen only by you.

Personal tabs can be accessed anytime from any device, even offline.
Learn more »
comments
print report bad tab
22 comments total. Showing first comments.
0 reply
liamdunning 10 May 03, 2010 06:34 AM

It's the 9th fret not 8th for the capo.

0 reply
TheRHCP 72 May 16, 2010 07:37 AM

I was actually playing it on the 9th but I done a mistake when tabbing it.
Thanks for giving notice ;-)

0 reply
robertx995 10 Aug 23, 2010 07:20 AM

What do the "\" and "/" mean? I apologise for my amateur tab knowledge :)
By the way great tab, only took me an hour or so to get the hang of it (After I'd walked to the guitar shop to buy a capo! :L)

guest
You may want to rate the tab now too:
select rating
Wanna post a correction for this tab? Suggest correction