Oops, an error
Loading. Please wait.

Believe In Your Dreams bass

version 1
version 1

Whole song

Interactive

by TWRP
625 views 6 this week
no commentswrite comment
1 2 3 4 5
2 more votes to show rating
add to favorites
×
Save as Personal and add changes to this tab that will be seen only by you. Learn more ›
×
You can save this tab as Personal to edit and correct it or add notes. All changes will be seen only by you. Learn more »
launch autoscroll
font size
0
reset
guitar tuner
edit
Autoscroll
slow
fast
+/-
esc
set tempo
stop
Author
[Intro 0:00]      
                                                                       
G|----------------------------|-------|----------------------------|-------|
D|----------------------------|-------|----------------------------|-------|
A|----------------------------|-------|----------------------------|-------|
E|--5L---------(5L)--(5)-5----|--5----|--5L---------(5L)--(5)-5----|--5----|
                                                                          
G|----------------------------|-------|----------------------------|-------|
D|----------------------------|-------|----------------------------|-------|
A|----------------------------|-------|----------------------------|-------|
E|--1L---------(1L)--(1)-1----|--1----|--1L---------(1L)--(1)-1----|--1----|
                                                                  
G|----------------------------|-------|----------------------------|
D|----------------------------|-------|----------------------------|
A|----------------------------|-------|----------------------------|
E|--3L---------(3L)--(3)-3----|--3----|--3L---------(3L)--(3)-3----|
                                                                      
G|----------------------------------------------------|----------------|
D|----------------------------------------------------|----------------|
A|--------------------------------------2-----3-------|--5--5--5--5----|
E|--3L---------------------(3)-------3----------------|----------------|
                                                                    
G|----------------|----------------|----------------|----------------|----------------|
D|----------------|----------------|----------------|----------------|----------------|
A|--5--5--5--5----|--5--5--5--5----|--5--5--5--5----|--------3-------|--------3-------|
E|----------------|----------------|----------------|--5--3-----3----|--5--3-----3----|
                                                                      
G|----------------------------------------------------|----------------------------------------------------|
D|----------------------------------------------------|----------------------------------------------------|
A|--------------------------------0--2--3--2--0-------|--------------------------------0--2--3--2--0-------|
E|--1L---------------------(1)-------------------3----|--1L---------------------(1)------------------------|
                                                                                                        
G|----------------------------------------------------|----------------------------|-------|-------|
D|----------------------------------------------------|----------------------------|-------|-------|
A|--------------------------------0--2--3--2--0-------|----------------------------|-------|-------|
E|--3L----------------------3-------------------------|-----3--3--3--3--3--3--3----|-------|-------|


[Pre-Verse Solo 0:49]

G|----------------------------------------------------|----------------------------------------------------|
D|-----------------------------x----------------------|--------3--------------3--------5--5--------5--5----|
A|--------------------------------3>-5h-3-------------|----------------------------------------------------|
E|--5-----------3-----5-----------------------1L------|-(1)----------1-----------3-----------3-------------|
 
G|----------------------------------------------------|----------------------------------------------------|
D|-----------------------------x----------------------|-----3-----3-----------------5-----5----------------|
A|--------------------------------3>-5h-3-------------|----------------------------------------------------|
E|--5-----------3-----5-----------------------1L------|-(1)----1-----1-----------3-----3-----3-------------|

G|----------------------------------------------------|----------------------------------------------------|
D|-----------------------------x----------------------|--------3--------------5--------5-------------------|
A|--------------------------------3>-5h-3-------------|----------------------------------------------------|
E|--5-----------3-----5-----------------------1L------|-(1)----------1-----------3-----------3-------------|

G|----------------------------------------------------|----------------------------------------------------|
D|-----------------------------x----------------------|--------3--------3--------5--------5--------5-------|
A|--------------------------------3>-5h-3-------------|----------------------------------------------------|
E|--5-----------3-----5-----------------------1L------|-(1)----------1--------------3--------3-------------|


[Verse 1:04]

G|----------------------------------------------------|----------------------------------------------------|
D|-----------------------------x----------------------|--------3--------------3--------5--5--------5--5----|
A|--------------------------------3>-5h-3-------------|----------------------------------------------------|
E|--5-----------3-----5-----------------------1L------|-(1)----------1-----------3-----------3-------------|

G|----------------------------------------------------|----------------------------------------------------|
D|-----------------------------x----------------------|-----3-----3-----------------5-----5----------------|
A|--------------------------------3>-5h-3-------------|----------------------------------------------------|
E|--5-----------3-----5-----------------------1L------|-(1)----1-----1-----------3-----3-----3-------------|

G|----------------------------------------------------|----------------------------------------------------|
D|-----------------------------x----------------------|--------3--------------5--------5-------------------|
A|--------------------------------3>-5h-3-------------|----------------------------------------------------|
E|--5-----------3-----5-----------------------1L------|-(1)----------1-----------3-----------3-------------|

G|----------------------------------------------------|----------------------------------------------------|
D|-----------------------------x----------------------|--------3--------3--------5--------5--------5-------|
A|--------------------------------3>-5h-3-------------|----------------------------------------------------|
E|--5-----------3-----5-----------------------1L------|-(1)----------1--------------3--------3-------------|
                                                        
G|----------------------------|----------------------------|
D|----------------------------|----------------------------|
A|----------------------------|----------------------------|
E|--5-----5-----5-----5-------|--5-----5-----5-----5--3----|
                                                          
G|----------------------------|----------------------------|
D|----------------------------|----------------------------|
A|----------------------------|----------------------------|
E|--1-----1-----1-----1-------|--1-----1-----1-----1--5----|
                                                                           
G|----------------------------|----------------------------|----------------|
D|----------------------------|----------------------------|----------------|
A|----------------------------|----------------------------|--5--5--5--5----|
E|--3-----3-----3-----3-------|--3-----3-----3-----3-------|----------------|
                                                                           
G|----------------|----------------------------|----------------------------|
D|----------------|----------------------------|----------------------------|
A|--5--5--5--5----|----------------------------|----------------------------|
E|----------------|--5-----5-----5-----5-------|--5-----5-----5-----5--3----|
                                                          
G|----------------------------|----------------------------|
D|----------------------------|----------------------------|
A|----------------------------|----------------------------|
E|--1-----1-----1-----1-------|--1-----1-----1-----1--5----|
                                                          
G|----------------------------|----------------------------|
D|----------------------------|----------------------------|
A|----------------------------|----------------------------|
E|--3-----3-----3-----3-------|--3-----3-----3-----3-------|
                                                          
G|----------------------------|--7--7--7--7--7--7--7--7----|
D|----------------------------|----------------------------|
A|--5--5--5--5--5--5--5--5----|----------------------------|
E|----------------------------|----------------------------|


[Pre-Synth Solo 1:52] 
                                                         
G|----------------------------|----------------------------|
D|----------------------------|----------------------------|
A|--0L---------(0L)--(0)-0----|----------------------------|
E|----------------------------|-(3L)--------(3L)--(3)-3----|
                                                          
G|----------------------------|----------------------------|
D|----------------------------|----------------------------|
A|----------------------------|--5--5--5--5--5--5--5--5----|
E|--1L---------(1L)--(1)-1----|----------------------------|


[Synth Solo 2:00]   
                                                       
G|----------------------------|----------------------------|
D|----------------------------|----------------------------|
A|----------------------------|----------------------------|
E|--1--1--1--1--1--1--1--1----|--1--1--1--1--0--0--0--0----|
                                                          
G|----------------------------|----------------------------|
D|----------------------------|----------------------------|
A|--5--5--5--5--5--5--5--5----|--5--5--5--5--5--5--5--5----|
E|----------------------------|----------------------------|
                                                          
G|----------------------------|----------------------------|
D|----------------------------|----------------------------|
A|----------------------------|----------------------------|
E|--3--3--3--3--3--3--3--3----|--1--1--1--1--1--1--1--1----|
                                                          
G|----------------------------|----------------------------|
D|----------------------------|----------------------------|
A|----------------------------|-----5--5--5--5--5--5--5----|
E|--5--5--5--5--5--5--5-------|----------------------------|


[Guitar Solo 2:16]
 
G|----------------------------------------------------|----------------------------------------------------|
D|-----------------------------x----------------------|--------3--3--------------------5--5----------------|
A|--------------------------------3h-5h-3-------------|----------------------------------------------------|
E|--5-----------3-----5-----------------------1L------|-(1)----------1-----0-----3-----------3-------------|
 
G|----------------------------------------------------|----------------------------------------------------|
D|-----------------------------x----------------------|--------3--------3--------5-----------5-------------|
A|--------------------------------3h-5h-3-------------|----------------------------------------------------|
E|--5-----------3-----5-----------------------1L------|-(1)----------1--------------3-----------3----------|
 
G|----------------------------------------------------|----------------------------------------------------|
D|-----------------------------x----------------------|--------3--3--------------------5--5----------------|
A|--------------------------------3h-5h-3-------------|----------------------------------------------------|
E|--5-----------3-----5-----------------------1-------|-(1)----------1-----0-----3-----------3-------------|
 
G|----------------------------|--------5--------5--------4-----------4-------------|
D|-----------------7--7-------|----------------------------------------------------|
A|----------------------------|--------------3-------------------------------------|
E|--5-----3--5----------------|--1--------------------------3-----------3----------|

[Verse 2:32]
 
G|----------------------------------------------------|----------------------------------------------------|
D|-----------------------------x----------------------|--------3--3--------------------5--5----------------|
A|--------------------------------3h-5h-3-------------|----------------------------------------------------|
E|--5-----------3-----5-----------------------1L------|-(1)----------1-----0-----3-----------3-------------|
 
G|----------------------------------------------------|----------------------------------------------------|
D|-----------------------------x----------------------|--------3--------3--------5-----------5-------------|
A|--------------------------------3h-5h-3-------------|----------------------------------------------------|
E|--5-----------3-----5-----------------------1L------|-(1)----------1--------------3-----------3----------|
 
G|----------------------------------------------------|----------------------------------------------------|
D|-----------------------------x----------------------|--------3--3--------------------5--5----------------|
A|--------------------------------3h-5h-3-------------|----------------------------------------------------|
E|--5-----------3-----5-----------------------1L------|-(1)----------1-----0-----3-----------3-------------|
 
G|----------------------------------------------------|----------------------------------------------------|
D|-----------------------------x----------------------|--------3--------3--------5-----------5-------------|
A|--------------------------------3h-5h-3-------------|----------------------------------------------------|
E|--5-----------3-----5-----------------------1L------|-(1)----------1--------------3-----------3----------|


[Mid-Verse Breakdown 2:50]

G|-------|-------|-------|-------|
D|-------|-------|-------|-------|
A|-------|-------|-------|-------|
E|--5L---|-(5)---|--5L---|-(5)---|

G|----------------------------|----------------|----------------------------|----------------|
D|----------------------------|----------------|----------------------------|----------------|
A|----------------------------|----------------|----------------------------|----------------|
E|--5L---------(5L)--(5)-5----|--5--------5----|--1L---------(1L)--(1)-1----|--1--------5----|

G|----------------------------|----------------|-------|----------------|
D|----------------------------|----------------|-------|----------------|
A|----------------------------|-----2--3--4----|--5L---|--5--------5----|
E|--3L---------(3L)--(3)-3----|--3-------------|-------|----------------|

G|----------------------------|----------------|----------------------------|----------------|
D|----------------------------|----------------|----------------------------|----------------|
A|----------------------------|----------------|----------------------------|----------------|
E|--5L---------(5L)--(5)-5----|--5--------5----|--1L---------(1L)--(1)-1----|--1--------5----|

G|----------------------------|----------------|-------|----------------|
D|----------------------------|----------------|-------|----------------|
A|----------------------------|-----2--3--4----|--5L---|--5--------5----|
E|--3L---------(3L)--(3)-3----|--3-------------|-------|----------------|


[Outro 3:28]

G|----------------------------------------------------|----------------------------------------------------|
D|----------------------------------------------------|----------------------------------------------------|
A|--0L---------------------(0)----0--2--3--2--0-------|--------------------------------0--2--3--2--0-------|
E|-----------------------------------------------3----|--3L---------------------(3)------------------------|

G|----------------------------------------------------|----------------|
D|----------------------------------------------------|----------------|
A|--------------------------------0--2--3--2--0-------|----------------| x4
E|--2L---------------------(2)------------------------|--1--------3----|


[Outro Synth Solo 4:01]

G|----------------------------------------------------|----------------------------------------------------|
D|----------------------------------------------------|----------------------------------------------------|
A|----------------------------------------------------|----------------------------------------------------|
E|--5-----------5--------5--5-----5-----5-----5--5----|--3-----------3--------3--3-----3-----3-----3--3----|

G|----------------------------------------------------|----------------------------------------------------|
D|----------------------------------------------------|----------------------------------------------------|
A|----------------------------------------------------|----------------------------------------------------|
E|--2-----------2--------2--2-----2-----2-----2--2----|--1-----------1--------1--1-----------1-----3-------|

G|----------------------------------------------------|----------------------------------------------------|
D|----------------------------------------------------|----------------------------------------------------|
A|----------------------------------------------------|----------------------------------------------------|
E|--5-----------5--------5--5-----5-----5-----5--5----|--3-----------3--------3--3-----3-----3-----3--3----|

G|----------------------------------------------------|----------------------------------------------------|
D|----------------------------------------------------|----------------------------------------------------|
A|----------------------------------------------------|----------------------------------------------------|
E|--2-----------2--------2--2-----2-----2-----2--2----|--1-----------1--------1--1-----------1-----3-------|

G|----------------------------------------------------|----------------------------------------------------|
D|----------------------------------------------------|----------------------------------------------------|
A|----------------------------------------------------|----------------------------------------------------|
E|--5-----------5--------5--5-----5-----5-----5--5----|--3-----------3--------3--3-----3-----3-----3--3----|

G|----------------------------------------------------|----------------------------------------------------|
D|----------------------------------------------------|----------------------------------------------------|
A|----------------------------------------------------|----------------------------------------------------|
E|--2-----------2--------2--2-----2-----2-----2--2----|--1-----------1--------1--1-----------1-----3-------|

G|----------------------------------------------------|----------------------------------------------------|
D|----------------------------------------------------|----------------------------------------------------|
A|----------------------------------------------------|----------------------------------------------------|
E|--5-----------5--------5--5-----5-----5-----5--5----|--3-----------3--------3--3-----3-----3-----3--3----|

G|----------------------------------------------------|----------------|
D|----------------------------------------------------|----------------|
A|--------------------------------0--2--3--2--0-------|----------------|
E|--2L---------------------(2)------------------------|--1--------3----|

G|----------------------------------------------------|-------|-------|
D|----------------------------------------------------|-------|-------|
A|------------------------------------------------2---|-(2)---|-(2)---|
E|--5-----5-----3-----5-------------------------------|-------|-------|


************************************

| x    Dead note
|(n)   Ghost note
| h    Hammer-on
| >    Accented note
| L    Tied note  

************************************

            
            
Suggest correction
Creating personal tab
Creating personal tab
You can edit any tab online and save it as your Personal.

You can edit, replace or remove any tab part or add personal notes – all changes will be seen only by you.

Personal tabs can be accessed anytime from any device, even offline.
Learn more »
Give kudos to tab author, rate the tab!
1 2 3 4 5
comments
print report bad tab
guest
You may want to rate the tab now too:
select rating
Wanna post a correction for this tab? Suggest correction