Oops, an error
Loading. Please wait.

Spectre tab

by Tycho
4,531 views 75 this week
no commentswrite comment
1 2 3 4 5
x 3
add to favorites
×
Save as Personal and add changes to this tab that will be seen only by you. Learn more ›
×
You can save this tab as Personal to edit and correct it or add notes. All changes will be seen only by you. Learn more »
launch autoscroll
font size
0
reset
how to read this tab
guitar tuner
edit
Autoscroll
slow
fast
+/-
esc
set tempo
stop
Author
-------------------------------------------------------------------------------
                             Spectre - Tycho
-------------------------------------------------------------------------------
Tabbed by: mike_venusaur
E-mail: mikev423@gmail.com
************************************
| h   hammer-on
| p   pull-off
************************************

This will require a quick delay and probably spring reverb. I have the Boss-RV3 and I found that
the plate reverb with delay setting works quite nice. The playing also requires just the right amount of
palm muting. You don't want to completely mute the notes, and you also don't want the notes to be ringing out.

Intro
e|---------------------------------------------------------------------------|
B|---------------------------------------------------------------------------|
G|--12--12--12---------------------------------------------------------------|
D|--10--10--10----13--13--13----10--10--10--10--10--10--10-------------------|
A|----------------11--11--11-----8---8---8---8---8---8---8-------------------|
E|---------------------------------------------------------------------------|

e|---------------------------------------------------------------------------|
B|---------------------------------------------------------------------------|
G|--12--12--12----15--15--15-------------------------------------------------|
D|--10--10--10----13--13--13----13--13--13--13--15--15--15-------------------|
A|------------------------------11--11--11--11--13--13--13-------------------|
E|---------------------------------------------------------------------------|

e|---------------------------------------------------------------------------|
B|---------------------------------------------------------------------------|
G|--12--12--12---------------------------------------------------------------|
D|--10--10--10----13--13--13----10--10--10--10--10--10--10-------------------|
A|----------------11--11--11-----8---8---8---8---8---8---8-------------------|
E|---------------------------------------------------------------------------|

e|---------------------------------------------------------------------------|
B|---------------------------------------------------------------------------|
G|--12--12--12----15--15--15-------------------------------------------------|
D|--10--10--10----13--13--13----13--13--13--13--15--15--15-------------------|
A|------------------------------11--11--11--11--13--13--13-------------------|
E|---------------------------------------------------------------------------|

e|---------------------------------------------------------------------------|
B|---------------------------------------------------------------------------|
G|--12--12--12---------------------------------------------------------------|
D|--10--10--10----13--13--13----10--10--10--10--10--10--10-------------------|
A|----------------11--11--11-----8---8---8---8---8---8---8-------------------|
E|---------------------------------------------------------------------------|

e|---------------------------------------------------------------------------|
B|---------------------------------------------------------------------------|
G|--12--12--12----15--15--15-------------------------------------------------|
D|--10--10--10----13--13--13----13--13--13--13--15--15--15-------------------|
A|------------------------------11--11--11--11--13--13--13-------------------|
E|---------------------------------------------------------------------------|

Bass and kick come in (00:22)
e|---------------------------------------------------------------------------|
B|---------------------------------------------------------------------------|
G|--12--12--12----12--12--12-------------------------------------------------|
D|--10--10--10----10--10--10---15--15--15--15--13--13--13--------------------|
A|-----------------------------13--13--13--13--11--11--11--------------------|
E|---------------------------------------------------------------------------|

e|---------------------------------------------------------------------------|
B|---------------------------------------------------------------------------|
G|--12--12--12----12--12--12-------------------------------------------------|
D|--10--10--10----10--10--10---15--15--15--15--13--13--13--------------------|
A|-----------------------------13--13--13--13--11--11--11--------------------|
E|---------------------------------------------------------------------------|

e|---------------------------------------------------------------------------|
B|---------------------------------------------------------------------------|
G|--12--12--12----15--15--15-------------------------------------------------|
D|--10--10--10----13--13--13---15--15--15--15--13--13--13--------------------|
A|-----------------------------13--13--13--13--11--11--11--------------------|
E|---------------------------------------------------------------------------|

e|---------------------------------------------------------------------------|
B|---------------------------------------------------------------------------|
G|--12--12--12----15--15--15-------------------------------------------------|
D|--10--10--10----13--13--13----13--13--13--13--15--15--15-------------------|
A|------------------------------11--11--11--11--13--13--13-------------------|
E|---------------------------------------------------------------------------|

Full band comes in. For lack of a better phrase 'Chorus groove' with straight forward
1/8 note strumming (00:38)
e|---------------------------------------------------------------------------|
B|---------------------------------------------------------------------------|
G|--------------15------------------------------15---------------------------|
D|--13--13--13--13--13--13--13--13--13--13--13--13--13--13--13---------------|
A|--13--13--13--13--13--13--13--13--13--13--13--13--13--13--13---------------|
E|---------------------------------------------------------------------------|

e|---------------------------------------------------------------------------|
B|---------------------------------------------------------------------------|
G|------------------15------------------------------15-----------------------|
D|--13--13--13--13--13--13--13--13--13--13--13--13--13--13--13--13-----------|
A|--13--13--13--13--13--13--13--13--13--13--13--13--13--13--13--13-----------|
E|---------------------------------------------------------------------------|

e|---------------------------------------------------------------------------|
B|---------------------------------------------------------------------------|
G|--12--12--12----15--15--15-------------------------------------------------|
D|--10--10--10----13--13--13---15--15--15--15--13--13--13--------------------|
A|-----------------------------13--13--13--13--11--11--11--------------------|
E|---------------------------------------------------------------------------|

e|---------------------------------------------------------------------------|
B|---------------------------------------------------------------------------|
G|--12--12--12----15--15--15-------------------------------------------------|
D|--10--10--10----13--13--13----13--13--13--13--15--15--15-------------------|
A|------------------------------11--11--11--11--13--13--13-------------------|
E|---------------------------------------------------------------------------|

Heavier palm muting when the band cuts out and quick up and down strums
e|---------------------------------------------------------------------------|
B|---------------------------------------------------------------------------|
G|-----------------15--------------------------------------15----------------|
D|--13-13-13-13-13----13-13-13-13-13--------13-13-13-13-13----13-13-13-13-13-|
A|---------------------------------------------------------------------------|
E|---------------------------------------------------------------------------|

e|---------------------------------------------------------------------------|
B|---------------------------------------------------------------------------|
G|-----------------15--------------------------------------15----------------|
D|--13-13-13-13-13----13-13-13-13-13--------13-13-13-13-13----13-13-13-13-13-|
A|---------------------------------------------------------------------------|
E|---------------------------------------------------------------------------|

e|---------------------------------------------------------------------------|
B|---------------------------------------------------------------------------|
G|--12--12--12----15--15--15-------------------------------------------------|
D|--10--10--10----13--13--13---15--15--15--15--13--13--13--------------------|
A|-----------------------------13--13--13--13--11--11--11--------------------|
E|---------------------------------------------------------------------------|

e|---------------------------------------------------------------------------|
B|---------------------------------------------------------------------------|
G|--12--12--12----15--15--15---15--15--15----15--15--15----------------------|
D|--10--10--10----13--13--13---13--13--13----13--13--13----------------------|
A|---------------------------------------------------------------------------|
E|---------------------------------------------------------------------------|

Chorus groove (01:07)
e|---------------------------------------------------------------------------|
B|---------------------------------------------------------------------------|
G|--------------15------------------------------15---------------------------|
D|--13--13--13--13--13--13--13--13--13--13--13--13--13--13--13---------------|
A|--13--13--13--13--13--13--13--13--13--13--13--13--13--13--13---------------|
E|---------------------------------------------------------------------------|

e|---------------------------------------------------------------------------|
B|---------------------------------------------------------------------------|
G|------------------15------------------------------15-----------------------|
D|--13--13--13--13--13--13--13--13--13--13--13--13--13--13--13--13-----------|
A|--13--13--13--13--13--13--13--13--13--13--13--13--13--13--13--13-----------|
E|---------------------------------------------------------------------------|

e|---------------------------------------------------------------------------|
B|---------------------------------------------------------------------------|
G|--12--12--12----15--15--15-------------------------------------------------|
D|--10--10--10----13--13--13---15--15--15--15--13--13--13--------------------|
A|-----------------------------13--13--13--13--11--11--11--------------------|
E|---------------------------------------------------------------------------|

e|---------------------------------------------------------------------------|
B|---------------------------------------------------------------------------|
G|--12--12--12----15--15--15-------------------------------------------------|
D|--10--10--10----13--13--13----13--13--13--13--15--15--15-------------------|
A|------------------------------11--11--11--11--13--13--13-------------------|
E|---------------------------------------------------------------------------|


Break (01:26) - palm muted 17's
e|---------------------------------------------------------------------------|
B|---------------------------------------------------------------------------|
G|--1717171717171717171717171717171717171717171717171717171717171717---------|
D|---------------------------------------------------------------------------|
A|---------------------------------------------------------------------------|
E|---------------------------------------------------------------------------|

Bridge (01:35) Repeat 4 times
e|---------------------------------------------------------------------------|
B|---------------------------------------------------------------------------|
G|--12-12-121212-10----------------------------------------------------------|
D|------------------13-12----8--10--8------8--10--12--13--15--17--15--17--15-|
A|-------------------------------------10------------------------------------|
E|---------------------------------------------------------------------------|

e|---------------------------------------------------------------------------------|
B|---------------------------------------------------------------------------------|
G|--15---15-15-15------------------------------------------------------------------|
D|----------------15-17-15---8--10--8--12--13--12--13--8--10--12--13--12h13p12-12--|
A|---------------------------------------------------------------------------------|
E|---------------------------------------------------------------------------------|


Intro riff (02:36)
e|---------------------------------------------------------------------------|
B|---------------------------------------------------------------------------|
G|--12--12--12---------------------------------------------------------------|
D|--10--10--10----13--13--13----10--10--10--10--10--10--10-------------------|
A|----------------11--11--11-----8---8---8---8---8---8---8-------------------|
E|---------------------------------------------------------------------------|

e|---------------------------------------------------------------------------|
B|---------------------------------------------------------------------------|
G|--12--12--12----15--15--15-------------------------------------------------|
D|--10--10--10----13--13--13----13--13--13--13--15--15--15-------------------|
A|------------------------------11--11--11--11--13--13--13-------------------|
E|---------------------------------------------------------------------------|

e|---------------------------------------------------------------------------|
B|---------------------------------------------------------------------------|
G|--12--12--12---------------------------------------------------------------|
D|--10--10--10----13--13--13----10--10--10--10--10--10--10-------------------|
A|----------------11--11--11-----8---8---8---8---8---8---8-------------------|
E|---------------------------------------------------------------------------|

e|---------------------------------------------------------------------------|
B|---------------------------------------------------------------------------|
G|--12--12--12----15--15--15-------------------------------------------------|
D|--10--10--10----13--13--13----13--13--13--13--15--15--15-------------------|
A|------------------------------11--11--11--11--13--13--13-------------------|
E|---------------------------------------------------------------------------|

Chorus groove (02:50)
e|---------------------------------------------------------------------------|
B|---------------------------------------------------------------------------|
G|--------------15------------------------------15---------------------------|
D|--13--13--13--13--13--13--13--13--13--13--13--13--13--13--13---------------|
A|--13--13--13--13--13--13--13--13--13--13--13--13--13--13--13---------------|
E|---------------------------------------------------------------------------|

e|---------------------------------------------------------------------------|
B|---------------------------------------------------------------------------|
G|------------------15------------------------------15-----------------------|
D|--13--13--13--13--13--13--13--13--13--13--13--13--13--13--13--13-----------|
A|--13--13--13--13--13--13--13--13--13--13--13--13--13--13--13--13-----------|
E|---------------------------------------------------------------------------|

e|---------------------------------------------------------------------------|
B|---------------------------------------------------------------------------|
G|--12--12--12----15--15--15-------------------------------------------------|
D|--10--10--10----13--13--13---15--15--15--15--13--13--13--------------------|
A|-----------------------------13--13--13--13--11--11--11--------------------|
E|---------------------------------------------------------------------------|

e|---------------------------------------------------------------------------|
B|---------------------------------------------------------------------------|
G|--12--12--12----15--15--15-------------------------------------------------|
D|--10--10--10----13--13--13----13--13--13--13--15--15--15-------------------|
A|------------------------------11--11--11--11--13--13--13-------------------|
E|---------------------------------------------------------------------------|

e|---------------------------------------------------------------------------|
B|---------------------------------------------------------------------------|
G|--12--12--12----12--12--12-------------------------------------------------|
D|--10--10--10----10--10--10---15--15--15--15--13--13--13--------------------|
A|-----------------------------13--13--13--13--11--11--11--------------------|
E|---------------------------------------------------------------------------|

e|---------------------------------------------------------------------------|
B|---------------------------------------------------------------------------|
G|--12--12--12----12--12--12-------------------------------------------------|
D|--10--10--10----10--10--10---15--15--15--15--13--13--13--------------------|
A|-----------------------------13--13--13--13--11--11--11--------------------|
E|---------------------------------------------------------------------------|

e|---------------------------------------------------------------------------|
B|---------------------------------------------------------------------------|
G|--12--12--12----15--15--15-------------------------------------------------|
D|--10--10--10----13--13--13---15--15--15--15--13--13--13--------------------|
A|-----------------------------13--13--13--13--11--11--11--------------------|
E|---------------------------------------------------------------------------|

e|---------------------------------------------------------------------------|
B|---------------------------------------------------------------------------|
G|--12--12--12----15--15--15-------------------------------------------------|
D|--10--10--10----13--13--13----13--13--13--13--15--15--15-------------------|
A|------------------------------11--11--11--11--13--13--13-------------------|
E|---------------------------------------------------------------------------|

Chorus groove (03:21)
e|---------------------------------------------------------------------------|
B|---------------------------------------------------------------------------|
G|--------------15------------------------------15---------------------------|
D|--13--13--13--13--13--13--13--13--13--13--13--13--13--13--13---------------|
A|--13--13--13--13--13--13--13--13--13--13--13--13--13--13--13---------------|
E|---------------------------------------------------------------------------|

e|---------------------------------------------------------------------------|
B|---------------------------------------------------------------------------|
G|------------------15------------------------------15-----------------------|
D|--13--13--13--13--13--13--13--13--13--13--13--13--13--13--13--13-----------|
A|--13--13--13--13--13--13--13--13--13--13--13--13--13--13--13--13-----------|
E|---------------------------------------------------------------------------|

e|---------------------------------------------------------------------------|
B|---------------------------------------------------------------------------|
G|--------------15------------------------------15---------------------------|
D|--13--13--13--13--13--13--13--13--13--13--13--13--13--13--13---------------|
A|--13--13--13--13--13--13--13--13--13--13--13--13--11--11--11---------------|
E|---------------------------------------------------------------------------|

e|---------------------------------------------------------------------------|
B|---------------------------------------------------------------------------|
G|--12--12--12----12--12--12-------------------------------------------------|
D|--10--10--10----10--10--10----13--13--13----13--13--13---------------------|
A|--10--10--10----10--10--10----11--11--11----11--11--11---------------------|
E|---------------------------------------------------------------------------|

End (03:36)
e|---------------------------------------------------------------------------|
B|---------------------------------------------------------------------------|
G|--12--12--12---------------------------------------------------------------|
D|--10--10--10----13--13--13----10--10--10--10--10--10--10-------------------|
A|----------------11--11--11-----8---8---8---8---8---8---8-------------------|
E|---------------------------------------------------------------------------|

e|---------------------------------------------------------------------------|
B|---------------------------------------------------------------------------|
G|--12--12--12----15--15--15-------------------------------------------------|
D|--10--10--10----13--13--13----13--13--13--13--15--15--15-------------------|
A|------------------------------11--11--11--11--13--13--13-------------------|
E|---------------------------------------------------------------------------|



            
            
Suggest correction
Creating personal tab
Creating personal tab
You can edit any tab online and save it as your Personal.

You can edit, replace or remove any tab part or add personal notes – all changes will be seen only by you.

Personal tabs can be accessed anytime from any device, even offline.
Learn more »
Give kudos to tab author, rate the tab!
1 2 3 4 5
comments
print report bad tab
guest
You may want to rate the tab now too:
select rating
Wanna post a correction for this tab? Suggest correction