Oops, an error
Loading. Please wait.

Youll Ask For Me tab

version 1
version 1

Whole song

17,171 views 3 this week
6 commentsread comments
1 2 3 4 5
x 5
add to favorites
×
Save as Personal and add changes to this tab that will be seen only by you. Learn more ›
×
You can save this tab as Personal to edit and correct it or add notes. All changes will be seen only by you. Learn more »
launch autoscroll
font size
0
reset
how to read this tab
guitar tuner
edit
Autoscroll
slow
fast
+/-
esc
set tempo
stop
This is taken right from his little video that he posted that you can see here:
http://www.youtube.com/watch?v=YJcByUMkzmo

But just in case anyone was confused, i thought i'd post it.

Artist: Tyler Hilton
Song: You'll Ask For Me

Tuning: C F C F A C


Intro:

C|--9--9--9----0--0--0-----0----0--0--0--0-----0--0--0------------|
A|--7 /8 p7----3-h4-p3-----0----1/ 3--1--0-----5-h6--5------------|
F|--0--0--0----0--0--0-----0----0--0--0--0-----0--0--0------------|
C|--9--9--9----5--5--5-----0----0--0--0--0-----7--7--7------------| x2
F|--9--9--9----5--5--5-----0----0--0--0--0-----7--7--7------------|
C|-(8)(8)(8)--(4)(4)(4)----0----0--0--0--0----(6)(6)(6)-----------|

Verse:

C|--9------0------0------0------------|
A|--7------3------0------5------------|
F|--0------0------0------0------------|
C|--9------5------0------7------------|
F|--9------5------0------7------------|
C|-(8)----(4)-----0-----(6)-----------|


Chorus:

C|--9----0----0----0------|
A|--7----3----0----5------|
F|--0----0----0----0------|
C|--9----5----0----7------| x 3
F|--9----5----0----7------|
C|-(8)--(4)---0---(6)-----|


C|-0---0---0---0-----0---|
A|-3---3---3---3-----5---|
F|-0---0---0---0-----0---|
C|-2---5---2---5-----7---|
F|-2---5---2---5-----7---|
C|----(4)-----(4)---(6)--|


Bridge:

C|-0----0---0--0---0---0--0----9----0--0----0----0-|
A|-3----5---3-h4---3---5-h6----7----5-h6----3----8-|
F|-0----0---0--0---0---0--0----0----0--0----0----0-|
C|-2----4---5--5---5---7--7----9----7--7----5----7-|
F|-2----4---5--5---5---7--7----9----7--7----5----7-|
C|---------(4)(4)-(4)-(6)(6)--(8)--(6)(6)--(4)---0-|


What was that about the ballroom dancing class I asked about
It's all I've thougth about 'cause you were saying
We might get a chance to talk
and talk my lead to dance
and maybe dance might lead to dates, and dates to aging

Hope you let your intuition
precede my reputation
'cause I have one

I am what you see
I am not what they say
But if I turned out to be
could you love me anyway
Standing in love,
love is hope in your heart will just
wake up and ask for me by name
Maybe someday will ask for me by name
Just not today

Well if this is love, then it's hard to say
with your notes and your books and you're reaching away
and I've confidence inssues with your intentions

And I'm not hip to all your tricks
with your algebra and your politics
And the band has planned a hotel interventio

Don't you leave me by my lonesome
to exceed my reputation
'cause I have one

I am what you see
I am not what they say
But if I turned out to be
could you love me anyway
Standing in love,
love is hope in your heart will just
wake up and ask for me by name
Maybe someday will ask for me by name
Just not today

I'm always here
I've walked you home
Then headed for my own
Until again I'm needed

I am what you see
I am not what they say
But if I turned out to be
could you love me anyway
Standing in love,
love is hope in your heart will just
wake up and ask for me by name
Maybe someday will ask for me by name
Just not today

            
            
Suggest correction
Creating personal tab
Creating personal tab
You can edit any tab online and save it as your Personal.

You can edit, replace or remove any tab part or add personal notes – all changes will be seen only by you.

Personal tabs can be accessed anytime from any device, even offline.
Learn more »
comments
print report bad tab
6 comments total. Showing first comments.
0 reply
tdrippy23 10 Jun 01, 2007 07:33 PM

hey i love this song sooo much its practically my favorite at the moment and i really need chords for this!!! cuz i can't get it down and i can't get the tunning right, please get back to me if u get this. thank you

...alyssa

0 reply
combs08 111 Jun 09, 2007 05:01 PM

just tune the strings down..thats all you have to do.

0 reply
MusicaEsAmor 10 Jun 27, 2007 02:43 PM

In the intro where you have (from low E to high E strings) (4),5,5,0,3,0 and (6),7,7,0,5,0, both of these, on the string tuned to A, say to go from 3-4-3 and 5-6-5. I'm almost positive that instead of going 3-4-3 and 5-6-5 it's supposed to be 3-5-3 and 5-7-5. I know it's something minor, but it does change the sound quite a bit.

guest
Wanna post a correction for this tab? Suggest correction