Oops, an error
Loading. Please wait.

Talking Pictures tab

288 views 1 this week
no commentswrite comment
1 2 3 4 5
3 more votes to show rating
add to favorites
×
Save as Personal and add changes to this tab that will be seen only by you. Learn more ›
×
You can save this tab as Personal to edit and correct it or add notes. All changes will be seen only by you. Learn more »
launch autoscroll
font size
0
reset
how to read this tab
guitar tuner
edit
Autoscroll
slow
fast
+/-
esc
set tempo
stop
Author
Notes:  The lyrics underneath the chords don't necessarily line up with the chords being 
over them.  A couple filler riffs for a 2nd guitar are included at the bottom.  
Tuning.


Intro
|--------------------|
|--------------------|
|--------------------|
|--77-777-777-77766--|x2
|--77-777-777-77777--|
|--55-555-555-55544--|

Verse
|--------------------|
|--------------------|
|--------------------|
|--77-777-777-77766--|
|--77-777-777-77777--|
|--55-555-555-55544--|
  can we rewind

|--------------------|
|--------------------|
|--------------------|
|--77-777-777-77766--|
|--77-777-777-77777--|
|--55-555-555-55544--|
  back to a time

|------------------------------------|
|------------------------------------|
|-------------------99-999-999-99999-|
|--77-777-777-77777-99-999-999-99999-|
|--77-777-777-77777-77-777-777-77777-|
|--55-555-555-55555------------------|
  when life stood still and we thought we'd last forever more

|---------------------|
|---------------------|
|--77-77777-99-99999--|
|--77-77777-99-99999--|
|--55-55555-77-77777--|
|---------------------|
  well now i stand alone

Intro riff (Filler 1 twice)

Verse 2
|--------------------|
|--------------------|
|--------------------|
|--77-777-777-77766--|
|--77-777-777-77777--|
|--55-555-555-55544--|
  all you've left me

|--------------------|
|--------------------|
|--------------------|
|--77-777-777-77766--|
|--77-777-777-77777--|
|--55-555-555-55544--|
  are memories

|------------------------------------|
|------------------------------------|
|-------------------99-999-999-99999-|
|--77-777-777-77777-99-999-999-99999-|
|--77-777-777-77777-77-777-777-77777-|
|--55-555-555-55555------------------|
  the endless night we laughed out loud at everything

|---------------------|
|---------------------|
|--77-77777-99-99999--|
|--77-77777-99-99999--|
|--55-55555-77-77777--|
|---------------------|
  well all these scenes

|---------------------|
|---------------------|
|--66-66666-77-77777--|
|--66-66666-77-77777--|
|--44-44444-55-55555--|
|---------------------|
  are broken dreams

|--------------|
|--------------|
|--77-77777-9--|
|--77-77777-9--|
|--55-55555-7--|
|--------------|
  and now i stand alone

Intro Variation (Filler 1 twice)
|-----------------------------------|
|-----------------------------------|
|-----------------------------------|
|--77-777-777-77766--77-777-777-77--|
|--77-777-777-77777--77-777-777-77--|
|--55-555-555-55544--55-555-555-55--|

Chorus (Filler 2 twice)
|-----------------------------------------|
|-----------------------------------------|
|-----------77777777------------99999999--|
|-44444444--77777777--77777777--99999999--|
|-44444444--55555555--77777777--77777777--|
|-22222222------------55555555------------|
  frame by  frame by  name by   name by

|-----------------------------------------|
|-----------------------------------------|
|-----------77777777------------99999999--|
|-44444444--77777777--77777777--99999999--|
|-44444444--55555555--77777777--77777777--|
|-22222222------------55555555------------|
  face by  face we're talking   pictures

Intro riff
Verse 3
|--------------------|
|--------------------|
|--------------------|
|--77-777-777-77766--|
|--77-777-777-77777--|
|--55-555-555-55544--|
  history

|--------------------|
|--------------------|
|--------------------|
|--77-777-777-77766--|
|--77-777-777-77777--|
|--55-555-555-55544--|
  i can't believe

|------------------------------------|
|------------------------------------|
|-------------------99-999-999-99999-|
|--77-777-777-77777-99-999-999-99999-|
|--77-777-777-77777-77-777-777-77777-|
|--55-555-555-55555------------------|
  i had it all, then i just watched it fade away

|---------------------|
|---------------------|
|--77-77777-99-99999--|
|--77-77777-99-99999--|
|--55-55555-77-77777--|
|---------------------|
  well all these scenes

|---------------------|
|---------------------|
|--66-66666-77-77777--|
|--66-66666-77-77777--|
|--44-44444-55-55555--|
|---------------------|
  are broken dreams

|--------------|
|--------------|
|--77-77777-9--|
|--77-77777-9--|
|--55-55555-7--|
|--------------|
  and now i stand alone

Intro variation (Filler 1 once)
|--------------------|
|--------------------|
|--------------------|
|--77-777-777777777--|
|--77-777-777777777--|
|--55-555-555555555--|

Chorus (Filler 2 four times)
|-----------------------------------------|
|-----------------------------------------|
|-----------77777777------------99999999--|
|-44444444--77777777--77777777--99999999--|
|-44444444--55555555--77777777--77777777--|
|-22222222------------55555555------------|
  frame by  frame by  name by   name by

|-----------------------------------------|
|-----------------------------------------|
|-----------77777777------------99999999--|
|-44444444--77777777--77777777--99999999--|
|-44444444--55555555--77777777--77777777--|
|-22222222------------55555555------------|
  face by  face we're talking   pictures

|-----------------------------------------|
|-----------------------------------------|
|-----------77777777------------99999999--|
|-44444444--77777777--77777777--99999999--|
|-44444444--55555555--77777777--77777777--|
|-22222222------------55555555------------|
                we're talking   pictures

|-----------------------------------------|
|-----------------------------------------|
|-----------77777777------------99999999--|
|-44444444--77777777--77777777--99999999--|
|-44444444--55555555--77777777--77777777--|
|-22222222------------55555555------------|
                we're talking   pictures

|-------------------------|
|-------------------------|
|--7-------------------9--|
|--7-------------------9--|
|--5-------------------7--|
|-------------------------|
  all these scenes are broken dreams

|----------------------|
|----------------------|
|--7----------------9--|
|--7----------------9--|
|--5----------------7--|
|----------------------|
  loves not always what it seems

Chorus (Filler 2 five times after a cappella)
(a cappella)
frame by frame by name by name by

|-----------------------------------------|
|-----------------------------------------|
|-----------77777777------------99999999--|
|-44444444--77777777--77777777--99999999--|
|-44444444--55555555--77777777--77777777--|
|-22222222------------55555555------------|
  face by  face we're talking   pictures

|-----------------------------------------|
|-----------------------------------------|
|-----------77777777------------99999999--|
|-44444444--77777777--77777777--99999999--|
|-44444444--55555555--77777777--77777777--|
|-22222222------------55555555------------|
  frame by  frame by  name by   name by

|-----------------------------------------|
|-----------------------------------------|
|-----------77777777------------99999999--|
|-44444444--77777777--77777777--99999999--|
|-44444444--55555555--77777777--77777777--|
|-22222222------------55555555------------|
  face by  face we're talking   pictures

|-----------------------------------------|
|-----------------------------------------|
|-----------77777777------------99999999--|
|-44444444--77777777--77777777--99999999--|
|-44444444--55555555--77777777--77777777--|
|-22222222------------55555555------------|
                we're talking   pictures

|---------------------|
|---------------------|
|-----------77777777--|
|-44444444--77777777--|
|-44444444--55555555--|
|-22222222------------|
                    talking pictures

Filler 1 for a 2nd guitar
|------0-------0-------0-------0----|
|----5---5---5---5---5---5---5---5--|
|--7-------7-------6-------6--------|
|-----------------------------------|
|-----------------------------------|
|-----------------------------------|

Filler 2 for a 2nd guitar
|--9----7----9----10----9----7----9----7----9---------------|
|----10---10---10----10---10---10---10---10-----9---10---9--|
|---------------------------------------------9---9----9----|
|-----------------------------------------------------------|
|-----------------------------------------------------------|
|-----------------------------------------------------------|

            
            
Suggest correction
Creating personal tab
Creating personal tab
You can edit any tab online and save it as your Personal.

You can edit, replace or remove any tab part or add personal notes – all changes will be seen only by you.

Personal tabs can be accessed anytime from any device, even offline.
Learn more »
Give kudos to tab author, rate the tab!
1 2 3 4 5
comments
print report bad tab
guest
You may want to rate the tab now too:
select rating
Wanna post a correction for this tab? Suggest correction