Oops, an error
Loading. Please wait.

Black No 1 tab

version 1
version 1

Whole song

Interactive

33,362 views 96 this week
2 commentsread comments
1 2 3 4 5
x 6
add to favorites
×
Save as Personal and add changes to this tab that will be seen only by you. Learn more ›
×
You can save this tab as Personal to edit and correct it or add notes. All changes will be seen only by you. Learn more »
launch autoscroll
font size
0
reset
how to read this tab
guitar tuner
backing track
0:00
0:00
edit
Autoscroll
slow
fast
+/-
esc
set tempo
stop
From: Bjoern Winkler 

"Black No. 1" by Type O' Negative
Transcription by Bj"orn Winkler


Riff 1:
  |-------play 3 times-----------|
e|--------------------------------|------------------------|
B|--------------------------------|------------------------|
G|--------------------------------|------------------------|
D|--------------------------------|------------------------|
A|--------------------------------|----------------2-5-1-0-|
E|0-0-0-0-3-3-3-3-7-7-7-5---5-3-5-|0-0-0-0-3-3-3-5---------|


Chorus:
  |-------play 3 times-----------|
e|--------------------------------|------------------------|
B|--------------------------------|------------------------|
G|4---4---4---4---4---4---4---4---|4---4---4---4-----------|
D|--2---2---5---5---2---7---7---7-|--2---2---5-------------|
A|--------------------------------|----------------2-5-1-0-|
E|--------------------------------|--------------5---------|


Riff 2:
  |-------play 3 times-----------|
e|--------------------------------|------------------------|
B|--------------------------------|------------------------|
G|--------------------------------|------------------------|
D|--------------------------------|------------------------|
A|2-2-2-2-5-5-5-5-9-9-9-7---7-5-7-|2-2-2-2-5-5-5---2-5-1-0-|
E|0-0-0-0-3-3-3-3-7-7-7-5---5-3-5-|0-0-0-0-3-3-3-5---------|


Bridge:
  |-------play 3 times-------------|
e|----------------------------------|------------------------|
B|----------------------------------|------------------------|
G|----------------------------------|------------------------|
D|----------------------------------|------------------------|
A|4-4-x-x-x-7-7-x-x-11-11-x-x-x-9-9-|4-4-x-x-x-7-7-----9-----|
E|2-2-x-x-x-5-5-x-x-9--9--x-x-x-7-7-|2-2-x-x-x-5-5-7-9---8-7-|


Riff 3a:
  |-------play 3 times-----------|
e|--------------------------------|------------------------|
B|--------------------------------|------------------------|
G|----------------------------4---|------------------------|
D|--------------------------2---2-|------------------------|
A|7-7-7-7-9-9-9-9-4-4-4-4-4-2-----|7-----9-----4-----------|
E|5-5-5-5-7-7-7-7-2-2-2-2-2-0-----|5-----7-----2-----------|


Riff 3b:
  |-------play 2 times--|
e|-----------------------|--------------|
B|-----------------------|--------------|
G|-----------------------|--------------|
D|-----------------------|--------------|
A|7-----9-----4----------|7-----9-----\-|
E|5-----7-----2----------|5-----7-----\-|


Solo rhythm figure (which is actually played a whole octave lower :-(

e|------------------------------|---------------------------------|
B|------------------------------|---------------------------------|
G|----------------------4-------|----------------------4----------|
D|------------7-7-7-4-7---7p4p0-|------------7-7-7-4-7---7b(+1/4)-|
A|2-x-x-2-5-2-------------------|2-x-x-2-5-2----------------------|
E|------------------------------|---------------------------------|


Solo:

e|-----------------------------------|-----------------------------------|
B|-----------------------------------|--------7b(8)rb(7)-----------------|
G|-----------------------------------|----7--------------9-7-9-----7---\-|
D|--------4b(5)rb(4)-----------------|7-9---9------------------7-9---9-\-|
A|----5--------------7-5-7-----5---\-|-----------------------------------|
E|5-7---7------------------5-7---7-\-|-----------------------------------|
                                   ^- slide w/pick

Outro:

e|--------------------|---------------|
B|--------------------|---------------|
G|--------------------|---------------|
D|--------------------|---------------|
A|2---5---9---7---5-7-|2---5-2-7------|
E|0---3---7---5---3-5-|0---3-0-5------|


The parts are played in this order:

3x Riff 1
1x Chorus
2x Riff 2
1x Bridge
1x Chorus
2x Riff 2
1x Bridge
1x Chorus
1x Keyboard Interlude
1x Riff 3a
1x Riff 3b
1x Keyboard Interlude
2x Solo rhythm figure
4x Solo rhythm figure w/keyboard solo
1x Keyboard Interlude
2x Riff 3a
1x Riff 3b
1x Riff 1
2x Chorus
1x Riff 2 w/solo
4x Outro

            
            
Suggest correction
Creating personal tab
Creating personal tab
You can edit any tab online and save it as your Personal.

You can edit, replace or remove any tab part or add personal notes – all changes will be seen only by you.

Personal tabs can be accessed anytime from any device, even offline.
Learn more »
comments
print report bad tab
2 comments total.
+1 reply
TheUsed1284 10 Nov 06, 2002 07:00 PM

Nice tab, dude, It kicks ass

+1 reply
tbarrettl 271 Jun 21, 2007 10:13 AM

nice tab, sounds like the realthing

guest
Wanna post a correction for this tab? Suggest correction