Oops, an error
Loading. Please wait.

Everyone I Love Is Dead tab

version 1
version 1

Whole song

Interactive

7,196 views 9 this week
1 commentread comment
1 2 3 4 5
2 more votes to show rating
add to favorites
×
Save as Personal and add changes to this tab that will be seen only by you. Learn more ›
×
You can save this tab as Personal to edit and correct it or add notes. All changes will be seen only by you. Learn more »
launch autoscroll
font size
0
reset
how to read this tab
guitar tuner
edit
Autoscroll
slow
fast
+/-
esc
set tempo
stop
Type O Negative - Everyone I Love is Dead
Tabbed by Raza Mahmood
Type-O tuning from low to high (B,E,A,D,F#,B)


||-0--------------------5---5-----5---5-----5---5--------------------||
||-5---5-3---1---3--------3---------3---------3---------3--------3---||
||-2-2-----2---0----0-0-------------------------------0---0----0---0-||
||----------------------------3-3-------2-2--------------------------||
||--------------------------------------------------3--------2-------||
||-------------------------------------------------------------------||

||-0--0-0----0-0--0----0-0-0-|-0--0-0----0-0--0----0-0-0-||
||-3--3-3----3-3--3----3-3-3-|-3--3-3----3-3--3----3-3-3-||
||-2--2-2----2-2--2----2-2-2-|-2--2-2----2-2--2----2-2-2-||
||-0--0-0-X--0-0--0-X--0-0-0-|-0--0-0-X--0-0--0-X--0-0-0-||
||---------------------------|---------------------------||
||---------------------------|---------------------------||
|
|(bass arr. for guit.)
||---------------------------|---------------------------||
||---------------------------|---------------------------||
||---------------------------|---------------------------||
||-7--7-7-X--7-7--7----------|-9--9-9-X--/10--10-10-/12--||
||---------------------5-5-5-|---------------------------||
||---------------------------|---------------------------||

"Since 3 years..."
(with wah pedal)                           (4th time w/ distortion)
||---------------------------|-----------------------------------||
||---------------------------|-----------------------------------||
||-7--7-7----7-7--7----7-7-7-|-7/-12--12-12\10-10---10-10-/12-12-||
||-7--7-7----7-7--7----7-7-7-|-7/-12--12-12\10-10---10-10-/12-12-||
||-5--5-5-X--5-5--5-X--5-5-5-|-5/-10--10-10\-8--8-X--8--8-/10-10-||
||---------------------------|-----------------------------------||

"Goddamn it!"
||------------------||
||------------------||
||------------------||
||-7---5----12---10-||
||-5---3----10----8-||
||------------------||

"A dusty stack..."
"Of times I cried..."
"Commit the past..."
"Acrid smoke..."
     pm.....|    pm.|                                    (+=full bend)
||-------------------------|----------------------------------------||
||-------------------------|----------------------------------------||
||-------------------------|----------------------------------------||
||-7--7-7-7-7-7--7---7-7-7-|-7-/12--12-12\10------------------------||
||-5--5-5-5-5-5--5-X-5-5-5-|-5-/10--10-10\-8-----8----8-10-10+-(10)-||
||-------------------------|------------------10---10---------------||

"Goddamn it!"
||------------------||
||------------------||
||------------------||
||-7---5----12---10-||
||-5---3----10----8-||
||------------------||

Repeat verse

CHORUS:
"Everyone I love is      dead" (ha-ha)         (2times)
||----------------------------------------------------||
||----------------------------------------------------||
||----------------------------------------------------||
||----------------------------------------------------||
||-7-------5--------------7-----3-/7--2-/7--10-10-9-4-||
||-5-------3--------------5-----1-/5--0-/5---8--8-7-3-||

KEYS/CHOIR:
         pm.        pm
||---------------------------|-----------------------------------||
||---------------------------|-----------------------------------||
||---------------------------|-----------------------------------||
||-7--7-7----7-7--7----7-7-7-|-7/-12--12-12\10-10---10-10-/12-12-||
||-5--5-5-X--5-5--5-X--5-5-5-|-5/-10--10-10\-8--8-X--8--8-/10-10-||
||---------------------------|-----------------------------------||

"Life a game..."
||---------------------------|-----------------------------------||
||---------------------------|-----------------------------------||
||-7--7-7----7-7--7----7-7-7-|-7/-12--12-12\10-10---10-10-/12-12-||
||-7--7-7----7-7--7----7-7-7-|-7/-12--12-12\10-10---10-10-/12-12-||
||-5--5-5-X--5-5--5-X--5-5-5-|-5/-10--10-10\-8--8-X--8--8-/10-10-||
||---------------------------|-----------------------------------||

"Everyone I love is      dead" (ha-ha)         (4 times)
||----------------------------------------------------||
||----------------------------------------------------||
||----------------------------------------------------||
||----------------------------------------------------||
||-7-------5--------------7-----3-/7--2-/7--10-10-9-4-||
||-5-------3--------------5-----1-/5--0-/5---8--8-7-3-||

GUITAR SOLO:
 (2 times, repeat one octave higher)
||-----------------------------------------------------------------||
||-----------------------------------13+-13+-13-----13----13-15-15-||
||-12+-12+--------------12+-(12)-----------------14----14----------||
||---------12--------12----------12--------------------------------||
||-------------12-15-----------------------------------------------||
||-----------------------------------------------------------------||

"All dead..."
(repeat till end)
||------------------||
||------------------||
||------------------||
||-7---5----12---10-||
||-5---3----10----8-||
||------------------||

            
            
Suggest correction
Creating personal tab
Creating personal tab
You can edit any tab online and save it as your Personal.

You can edit, replace or remove any tab part or add personal notes – all changes will be seen only by you.

Personal tabs can be accessed anytime from any device, even offline.
Learn more »
Give kudos to tab author, rate the tab!
1 2 3 4 5
comments
print report bad tab
1 comment total.
+1 reply
eviljon 10 Jun 12, 2014 02:18 PM

Not sure if this will post correctly but these are some corrections I came up with based on both the album version and watching the few live videos I could find of this song. Tabbed for standard tuning..I'm not sure if he actually used an alternate tuning but it doesn't seem necessary. Biggest differences are in the intro, chorus and guitar solo.



||----------------------------------------------------------------------------------||
||-------------------------5---5-----5---5-----5---5---------------------------||
||-4---4-2---0---2--------2----------2---------2----------2--------3--------||
||-2-2-----2---0----0-0---------------------------------0-------0------0-----||
||-------------------------------3-3-------2-2------------------------------- 0--||
||-------------------------------------------------------3--------2------------------||

Verse A
(This part has a wah pedal effect?doesn?t seem to play this live but it?s on the record with the other verse section played under it)
||-------------------------------------------------------------------||
||-------------------------------------------------------------------||
||-2--2-2----2-2--2----2-2--|-2--2-2----2-2--2----2-2--||
||-2--2-2----2-2--2----2-2--|-2--2-2----2-2--2----2-2--||
||-0--0-0-X--0-0--0-X-0-0--|-0--0-0-X--0-0--0-X--0-0--||
||---------------------------------------------------------------------||

|(bass arr. for guit.)
||---------------------------|---------------------------||
||---------------------------|---------------------------||
||---------------------------|---------------------------||
||-7--7-7-X--7-7--7----------|-9--9-9-X--/10--10-10-/12--||
||---------------------5-5-5-|---------------------------||
||---------------------------|---------------------------||

Verse B
||---------------------------------------------------------------||
||---------------------------|-----------------------------------||
||---------------------------|-----------------------------------||
||-7--7-7----7-7--7----7-7-7-|-7/-12--12-12\10-10---10-10-/12-12-||
||-7--7-7----7-7--7----7-7-7-|-7/-12--12-12\10-10---10-10-/12-12-||
||-5--5-5-X--5-5--5-X--5-5-5-|-5/-10--10-10\-8--8-X--8--8-/10-10-||

"Goddamn it!"
||------------------||
||------------------||
||------------------||
||------------------||
||-7---5----12---10-||
||-5---3----10----8-||

pm.....| pm.| (+=full bend)
||-------------------------|----------------------------------------------------------||
||-------------------------|--------------------------------------------------||
||-------------------------|------------------------------------------------------------||
||-------------------------|----------7---7-------5-----------------------------------||
||-7--7-7-7-7-7--7---7-7-7-|-7-5--5--x-x--3-----3-------3---5^(6)-----------||
||-5--5-5-5-5-5--5-X-5-5-5-|-5-----------------5------5--------------------------||

"Goddamn it!"
||-------------------||
||------------------||
||------------------||
||------------------||
||-7---5----12---10-||
||-5---3----10----8-||

Repeat verse

CHORUS:
"Everyone I love is dead" (ha-ha) (2times)
||------------------------------------------------------------------------||
||------------------------------------------------------------------------||
||----------------------------9----------9---------9--------------------||
||-9--9--7--5-h-7---------7----------7---------7----5--4-----------||
||-7--7--7--5-------5--5--5----------7---------7----5--4-----------||
||--------------------------------8--8------7--7-------3--2-----------||

REPEAT VERSE B FOR KEYBOARD SOLO.

REPEAT VERSES A AND B ?Life a game??

GUITAR SOLO: PLAY TWICE THEN 2 MORE TIMES AN OCTAVE HIGHER

||------------------------------------------------------------------------------------------------------||
||-----------------------------------------------------------9^(10)?9^(10)?8----8----8--10-||
||-8^(9)-8^(9)-----------------------------------------------------------------------9-----9------||
||-------------------7------------------12^(13)-10-------------------------------------------------||
||------------------------7?10/12-------------------12-------------------------------------------||
||-------------------------------------------------------------------------------------------------------||

REPEAT VERSE A AND B

REPEAT CHORUS

REPEAT THROUGH ENDING
||------------------||
||------------------||
||------------------||
||-7---5----12---10-||
||-5---3----10----8-||
||------------------||

guest
Wanna post a correction for this tab? Suggest correction