Oops, an error
Loading. Please wait.

Gravitational Constant tab

3,438 views 6 this week
2 commentsread comments
1 2 3 4 5
x 4
add to favorites
×
Save as Personal and add changes to this tab that will be seen only by you. Learn more ›
×
You can save this tab as Personal to edit and correct it or add notes. All changes will be seen only by you. Learn more »
launch autoscroll
font size
0
reset
how to read this tab
guitar tuner
edit
Autoscroll
slow
fast
+/-
esc
set tempo
stop
"Gravitational Constant"
>From Slow, Deep, and Hard
Tabbed by Raza Mahmood
Tune all guitars down 2.5 steps
Low to high: B, E, A, D, F#, B


"1,2,3,4, 
I don't wanna 
live no more" (fdbk)
||--------|--------------------------------------------------|
||--------|--------------------------------------------------|
||--------|--------------------------------------------------|
||--------|----X--9-9-9-90--------0-12-12-12-XX-14-14-14-XX--|
||--------|----X--7-7-7-70-9-9-9-X0-10-10-10-XX-12-12-12-XX--|
||--------|----------------7-7-7-X---------------------------|

|------------------------------------------------------||
|------------------------------------------------------||
|------------------------------------------------------||
|--9-9-9-90--------0-12-12-12--------------------------||
|--7-7-7-70-9-9-9-X0-10-10-10-00-12-12-12-12-12-12-12--||
|-----------7-7-7-X-----------00-10-10-10-10-10-10-10--||

||-------------------------------------------------|-----------||
||-------------------------------------------------|-----------||
||-------------------------------------------------|-9------7--||
||---X--9-9-9-90--------0-12-12-12-XX-14-14-14-XX--|-9---77-7--||
||---X--7-7-7-70-9-9-9-X0-10-10-10-XX-12-12-12-XX--|-7---55-5--||
||---------------7-7-7-X---------------------------|-----------||

"Well, I got no more reason to   live."
    "Now, I feel the weight of the world on my back."
||------------------------------------------------|
||------------------------------------------------|
||------------------------------------------------|
||-----9-9-9-90--------0-12-12-12-XX-14-14-14-XX--|
||-----7-7-7-70-9-9-9-X0-10-10-10-XX-12-12-12-XX--|
||----------------7-7-7-X-------------------------|

 "And I got no more love to give"
 "I've seen the future, the future looks black."
|------------------------------------------------------||
|------------------------------------------------------||
|------------------------------------------------------||
|--9-9-9-90--------0-12-12-12--------------------------||
|--7-7-7-70-9-9-9-X0-10-10-10-00-12-12-12-12-12-12-12--||
|-----------7-7-7-X-----------00-10-10-10-10-10-10-10--||

"Tonight's the night I'll paint the town red, I'll put another hole..."
"It's what I must do, have no reservations, ain't talkin 'bout..."
||-------------------------------------------------|-----------||
||-------------------------------------------------|-----------||
||-------------------------------------------------|-9------7--||
||---X--9-9-9-90--------0-12-12-12-XX-14-14-14-XX--|-9---77-7--||
||---X--7-7-7-70-9-9-9-X0-10-10-10-XX-12-12-12-XX--|-7---55-5--||
||---------------7-7-7-X---------------------------|-----------||

 "Unjustifiable existence..."
  pm.....................|         pm....................|
||---------------------------------------------------------------||
||---------------------------------------------------------------||
||---------------------------------------------------------------||
||---------------------------------------------------------------||
||-------------------------5-7-4-5-------------------------7-6-5-||
||-5-6-7-5-6-7-5-4-5-4-5-4---------5-6-7-5-6-7-5-4-5-4-5-4-------||

 "Unjustifiable existence..."
  pm....................|          pm............|
||---------------------------------------------------------------||
||---------------------------------------------------------------||
||---------------------------------------------------------------||
||---------------------------------------------------------------||
||-------------------------5-7-4-5-----------------7-6-7---7-6-5-||
||-5-6-7-5-6-7-5-4-5-4-5-4---------5-6-7-5-6-7-5-4-5-4-5---5-4-3-||

Guitar solo
||-/7---5h7-5-4---7---5h7-5-4-5---/7---5h7-5-4-5--5-4-5-4--------------||
||--------------------------------------------------------5-4-3--0-2-3-||
||---------------------------------------------------------------------||
||---------------------------------------------------------------------||
||---------------------------------------------------------------------||
||---------------------------------------------------------------------||

  "G   r   a   v   i   t   y..."
   pm.....|     pm.....|       pm.....|     pm.....|
||----------------------------------------------------------||
||----------------------------------------------------------||
||----------------------------------------------------------||
||----------2-4----------4-3-2----------2-4----------4-3-2--||
||------------------------------0-0-0-0---------------------||
||--2-2-2-2------4-4-4-4---------------------4-4-4-4--------||

  "C  r  u  s  h  i  n  g      m  e..."
   pm.....|     pm.....|       pm.....|     pm.....|
||--------------------------------------------------------||
||--------------------------------------------------------||
||--------------------------------------------------------||
||----------2-4----------4-3-2----------2-4----------2----||
||------------------------------0-0-0-0----------------2--||
||--2-2-2-2------4-4-4-4---------------------4-4-4-4------||

Guitar break                     (4 times)
||---------------------------------------||
||---------------------------------------||
||---------------------------------------||
||-/11-10----10-9----9-8---8-7---7-6-----||
||--------11------10-----9-----8-----7-9-||
||---------------------------------------||

   "Die die die die die die die die die..."
||-----------------------------------------||
||-----------------------------------------||
||-----------------------------------------||
||---12--12-11-10--9--8--7--6--5--4--3--2--||
||---11--10--9--8--7--6--5--4--3--2--1--0--||
||-----------------------------------------||


(2nd time)"I feel something pulling me down"
||--------------------------------------------------|
||--------------------------------------------------|
||--------------------------------------------------|
||----X--9-9-9-90--------0-12-12-12-XX-14-14-14-XX--|
||----X--7-7-7-70-9-9-9-X0-10-10-10-XX-12-12-12-XX--|
||----------------7-7-7-X---------------------------|

"Forcing me between myself and the ground"
|------------------------------------------------------||
|------------------------------------------------------||
|------------------------------------------------------||
|--9-9-9-90--------0-12-12-12--------------------------||
|--7-7-7-70-9-9-9-X0-10-10-10-00-12-12-12-12-12-12-12--||
|-----------7-7-7-X-----------00-10-10-10-10-10-10-10--||

"Of all the nightmares that ever came true, I think that gravity..."
||-------------------------------------------------|-----------||
||-------------------------------------------------|-----------||
||-------------------------------------------------|-9------7--||
||---X--9-9-9-90--------0-12-12-12-XX-14-14-14-XX--|-9---77-7--||
||---X--7-7-7-70-9-9-9-X0-10-10-10-XX-12-12-12-XX--|-7---55-5--||
||---------------7-7-7-X---------------------------|-----------||



 "Unjustifiable existence..."
  pm.....................|         pm....................|
||---------------------------------------------------------------||
||---------------------------------------------------------------||
||---------------------------------------------------------------||
||---------------------------------------------------------------||
||-------------------------5-7-4-5-------------------------7-6-5-||
||-5-6-7-5-6-7-5-4-5-4-5-4---------5-6-7-5-6-7-5-4-5-4-5-4-------||

 "Unjustifiable existence..."
  pm....................|          pm............|
||---------------------------------------------------------------||
||---------------------------------------------------------------||
||---------------------------------------------------------------||
||---------------------------------------------------------------||
||-------------------------5-7-4-5-----------------7-6-7---7-6-5-||
||-5-6-7-5-6-7-5-4-5-4-5-4---------5-6-7-5-6-7-5-4-5-4-5---5-4-3-||


"G   r   a   v   i   t   y..."
   pm.....|     pm.....|       pm.....|     pm.....|
||----------------------------------------------------------||
||----------------------------------------------------------||
||----------------------------------------------------------||
||----------2-4----------4-3-2----------2-4----------4-3-2--||
||------------------------------0-0-0-0---------------------||
||--2-2-2-2------4-4-4-4---------------------4-4-4-4--------||

  "C  r  u  s  h  i  n  g      m  e..."
   pm.....|     pm.....|       pm.....|     pm.....|
||--------------------------------------------------------||
||--------------------------------------------------------||
||--------------------------------------------------------||
||----------2-4----------4-3-2----------2-4----------2----||
||------------------------------0-0-0-0----------------2--||
||--2-2-2-2------4-4-4-4---------------------4-4-4-4------||

               "Aaahh"                       (4 times)
||-----------|----------|----------------------------||
||-----------|----------|----------------------------||
||-----------|----------|----------------------------||
||--2---3----|-2---3----|-2--3--5--------------------||
||--2---3--X-|-2---3--X-|-2--3--3--5-4-5-4--7--8--9--||
||--0---1--X-|-0---1--X-|-0--1-----3-2-3-2--5--6--7--||


||---------------------|---------------------------------------||
||-------------------8-|---------------------------------------||
||--9-7--5-7--2-5--7-7-|-9-8-9-7--5-4-5-7--2-5--5-7------------||
||--7-7--5-5--2-5--5-5-|-7-7-7-7--5-4-5-5--2-5--5-5--7-6-7-4-5-||
||---------------------|-----------------------------5-4-5-2-3-||
||---------------------|---------------------------------------||

"I got a problem, a problem with hate..."
"I built myself a nice little cage...
"I ain't hintin' for sympathy..."
"So what if I died a thousand deaths..."
 (palm mute the open E notes)
||-------------------------------------------------------------|
||------------------------8--------------------------------8---|
||-9--7----5--7----2-5--7-7-----7---9897----5457----2-5--7-7---|
||-7--7----5--5----2-5--5-5-----5---7777----5455----2-5--5-5---|
||--00-0000-00-0000-0-00-0-00000-00-----0000----0000-0-00-0-0--|
||-------------------------------------------------------------|

"Out of control."
"It's me."
"Next time."
"Is self expression."
              (chants, with organ)     (repeat and fade out)
|-----------||---------------|---------------------||
|-----------||---------------|---------------------||
|-----------||-2---4---5---4-|-2---4---5---7--5--7-||
|-7-6-6-4-5-||-2---4---5---4-|-2---4---5---7--5--7-||
|-5-4-5-2-3-||-0---2---3---2-|-0---2---3---5--3--5-||
|-----------||---------------|---------------------||

            
            
Suggest correction
Creating personal tab
Creating personal tab
You can edit any tab online and save it as your Personal.

You can edit, replace or remove any tab part or add personal notes – all changes will be seen only by you.

Personal tabs can be accessed anytime from any device, even offline.
Learn more »
comments
print report bad tab
2 comments total.
0 reply
roylinfordadams 10 Sep 09, 2013 08:22 AM

Riff 1

||--------|------------------------------------------|
||--------|------------------------------------------|
||--------|------------------------------------------|
||--------|----X--9-9-9-9----------------------------|
||--------|----X--7-7-7-7--9-9-9-9-5-5-5-5-7-7-7-7-7-|
||--------|----------------7-7-7-7-3-3-3-3-5-5-5-5-5-|

|--------------------------------------------------------||
|--------------------------------------------------------||
|--------------------------------------------------------||
|--9-9-9-9-11-11-11-11-12-12-12-12-----------------------||
|--7-7-7-7-9--9--9--9--10-10-10-10-12-12-12-12-12-12-12--||
|----------------------------------10-10-10-10-10-10-10--||

"Unjustifiable existence..."
pm.....................| pm....................|
||---------------------------------------------------------------||
||---------------------------------------------------------------||
||---------------------------------------------------------------||
||-------------------------7-9-8-7-------------------------9-8-7-||
||-------------------------5-7-4-5-------------------------7-6-5-||
||-5-7-6-5-7-6-5-7-5-4-5-4---------5-7-6-5-7-6-5-7-5-4-5-4-------||

"Unjustifiable existence..."
pm....................| pm............|
||---------------------------------------------------------------||
||---------------------------------------------------------------||
||---------------------------------------------------------------||
||-------------------------7-9-8-7-------------------------------||
||-------------------------5-7-4-5-----------------7-6-7---7-9-5-||
||-5-7-6-5-7-6-5-7-5-4-5-4---------5-7-6-5-7-6-5-7-5-4-5---5-7-3-||

0 reply
roylinfordadams 10 Sep 09, 2013 08:26 AM

"G r a v i t y..."
pm.....| pm.....| pm.....| pm.....|
||----------------------------------------------------------||
||----------------------------------------------------------||
||----------------------------------------------------------||
||----------2-4----------4-2-2--2-2-2-2-2-4----------4-2-2--||
||--4-4-4-4------6-6-6-6--------0-0-0-0------6-6-6-6--------||
||--2-2-2-2------4-4-4-4---------------------4-4-4-4--------||

"C r u s h i n g m e..."
pm.....| pm.....| pm.....| pm.....|
||--------------------------------------------------------||
||--------------------------------------------------------||
||---------------------------------------------------4----||
||----------2-4----------4-2-2--2-2-2-2-2-4----------2-4--||
||--4-4-4-4------6-6-6-6--------0-0-0-0------6-6-6-6---2--||
||--2-2-2-2------4-4-4-4---------------------4-4-4-4------||

guest
Wanna post a correction for this tab? Suggest correction