Oops, an error
Loading. Please wait.

Paranoid tab

version 2
version 2

Whole song

3,790 views 726 this week
2 commentsread comments
1 2 3 4 5
2 more votes to show rating
add to favorites
×
Save as Personal and add changes to this tab that will be seen only by you. Learn more ›
×
You can save this tab as Personal to edit and correct it or add notes. All changes will be seen only by you. Learn more »
launch autoscroll
font size
0
reset
how to read this tab
guitar tuner
edit
Autoscroll
slow
fast
+/-
esc
set tempo
stop
Hi! This song it's real plasure to play, I recommend listening to this cover once before playing,
just for right timings. :) Enjoy!

Check my cover/lesson here: https://www.youtube.com/watch?v=cfTdNuOe4Kc

Developed by PKRZ.

[Intro]

B |---------------------------------------------------------------------------|
F#|---------------------------------------------------------------------------|
D |---------------------------------------------------------------------------|
A |-9~--9~--9~---9~-9-9--9-9----7~--7~--7~---7~---12/11-11/9-9/7-7/9----------|
E |-7~--7~--7~---7~-7-7--7-7----5~--5~--5~---5~---10/-9--9/7-7/5-5/7----------| (x2)
B |---------------------------------------------------------------------------|

B |---------------------------------------------------------------------------|
F#|---------------------------------------------------------------------------|
D |---------------------------------------------------------------------------|
A |---------9~---9~-9-9--9-9------------7~---7~---12/11-11/9-9/7-7/9----------|
E |---------7~---7~-7-7--7-7------------5~---5~---10/-9--9/7-7/5-5/7----------| 
B |-0~--0~----------------------0~--0~----------------------------------------|

B |---------------------------------------------------------------------------|
F#|---------------------------------------------------------------------------|
D |---------------------------------------------------------------------------|
A |---------9~---9~-9-9--9-9-----------14~------------------------------------|
E |---------7~---7~-7-7--7-7-----------12~--------SLIDE-----------------------| 
B |-0~--0~----------------------0~--0~----------------------------------------|

[Verse]

B |---------------------------------------------------------------------------|
F#|---------------------------------------------------------------------------|
D |---------------------------------------------------------------------------|
A |--9~-------7~---------9~--------7~-------12/11-11/9-9/7-7/9----------------|
E |--7~-------5~---------7~--------5~-------10/-9--9/7-7/5-5/7----------------| 
B |--0~-------------0h3~------------------------------------------------------|

B |---------------------------------------------------------------------------|
F#|---------------------------------------------------------------------------|
D |---------------------------------------------------------------------------|
A |-9~--9~--9~---9~-9---------------12~-11~-----------------------------------|
E |-7~--7~--7~---7~-7-10~--12~--7~--10~--9~-----------------------------------| (x2)
B |--------------------8~--10~--5~--------------------------------------------|

B |---------------------------------------------------------------------------|
F#|---------------------------------------------------------------------------|
D |---------------------------------------------------------------------------|
A |--9~-------7~---------9~--------7~-------12/11-11/9-9/7-7/9----------------|
E |--7~-------5~---------7~--------5~-------10/-9--9/7-7/5-5/7----------------| 
B |--0~-------------0h3~------------------------------------------------------|

[Chorus]

B |----------------------------------------------------------------------------|
F#|----------------------------------------------------------------------------|
D |-11---11---11---11----9----9----8---8----9----9----9----9----9---9---9---9--|
A |----9----9----9----9----9----9----9---9----11---11---11---11---7---7---7---7|
E |----------------------------------------------------------------------------| (x4)
B |----------------------------------------------------------------------------|

[Verse]

B |---------------------------------------------------------------------------|
F#|---------------------------------------------------------------------------|
D |---------------------------------------------------------------------------|
A |---------9~---9~-9-9--9-9------------7~---7~---12/11-11/9-9/7-7/9----------|
E |---------7~---7~-7-7--7-7------------5~---5~---10/-9--9/7-7/5-5/7----------| 
B |-0~--0~----------------------0~--0~----------------------------------------|

B |---------------------------------------------------------------------------|
F#|---------------------------------------------------------------------------|
D |---------------------------------------------------------------------------|
A |---------9~---9~-9-9--9-9-----------14~------------------------------------|
E |---------7~---7~-7-7--7-7-----------12~--------SLIDE-----------------------| 
B |-0~--0~----------------------0~--0~----------------------------------------|

B |---------------------------------------------------------------------------|
F#|---------------------------------------------------------------------------|
D |---------------------------------------------------------------------------|
A |--9~-------7~---------9~--------7~-------12/11-11/9-9/7-7/9----------------|
E |--7~-------5~---------7~--------5~-------10/-9--9/7-7/5-5/7----------------| 
B |--0~-------------0h3~------------------------------------------------------|

[Bridge] Iron Man time! 

B |---------------------------------------------------------------------------|
F#|---------------------------------------------------------------------------|
D |---------------------------------------------------------------------------|
A |--4~---7~---7/9-9----12\11/12\11/12\11---7--7/9--9-------------------------|
E |--2~---5~---5/7-7----10\-9/10\-9/10\-9---5--5/7--7-------------------------| 
B |---------------------------------------------------------------------------|

B |---------------------------------------------------------------------------|
F#|---------------------------------------------------------------------------|
D |---------------------------------------------------------------------------|
A |--4~---7~---7/9-9----12\11/12\11/12\11---7~--------------------------------|
E |--2~---5~---5/7-7----10\-9/10\-9/10\-9---5~--------------------------------| 
B |---------------------------------------------------------------------------|

[Verse]

B |---------------------------------------------------------------------------|
F#|---------------------------------------------------------------------------|
D |---------------------------------------------------------------------------|
A |-12/11-11/9-9/7-7/9--------------------------------------------------------|
E |-10/-9--9/7-7/5-5/7--------------------------------------------------------| 
B |---------------------------------------------------------------------------|

B |---------------------------------------------------------------------------|
F#|---------------------------------------------------------------------------|
D |---------------------------------------------------------------------------|
A |---------9~---9~-9-9--9-9------------7~---7~---12/11-11/9-9/7-7/9----------|
E |---------7~---7~-7-7--7-7------------5~---5~---10/-9--9/7-7/5-5/7----------| 
B |-0~--0~----------------------0~--0~----------------------------------------|

B |---------------------------------------------------------------------------|
F#|---------------------------------------------------------------------------|
D |---------------------------------------------------------------------------|
A |---------9~---9~-9-9--9-9-----------14~------------------------------------|
E |---------7~---7~-7-7--7-7-----------12~--------SLIDE-----------------------| 
B |-0~--0~----------------------0~--0~----------------------------------------|

B |---------------------------------------------------------------------------|
F#|---------------------------------------------------------------------------|
D |---------------------------------------------------------------------------|
A |--9~-------7~---------9~--------7~-------12/11-11/9-9/7-7/9----------------|
E |--7~-------5~---------7~--------5~-------10/-9--9/7-7/5-5/7----------------| 
B |--0~-------------0h3~------------------------------------------------------|

B |---------------------------------------------------------------------------|
F#|---------------------------------------------------------------------------|
D |---------------------------------------------------------------------------|
A |-9~--9~--9~---9~-9---------------12~-11~-----------------------------------|
E |-7~--7~--7~---7~-7-10~--12~--7~--10~--9~-----------------------------------| (x2)
B |--------------------8~--10~--5~--------------------------------------------|

B |---------------------------------------------------------------------------|
F#|---------------------------------------------------------------------------|
D |---------------------------------------------------------------------------|
A |--9~-------7~---------9~--------7~-------12/11-11/9-9/7-7/9----------------|
E |--7~-------5~---------7~--------5~-------10/-9--9/7-7/5-5/7---9~-----------| 
B |--0~-------------0h3~-----------------------------------------7~-----------|

[Chorus] Pete Only

[Chorus] Slide

B |---------------------------------------------------------------------------|
F#|---------------------------------------------------------------------------|
D |---------------------------------------------------------------------------|
A |---------------------------------------------------------------------------|
E |--9~---9-9-9--11~-11/7--7--------------------------------------------------| (x6)
B |--7~---7-7-7---9~--9/5--5--------------------------------------------------|

B |----------------------------------------------------------------------------|
F#|----------------------------------------------------------------------------|
D |-11---11---11---11----9----9----8---8----9----9----9----9----9---9---9---9--|
A |----9----9----9----9----9----9----9---9----11---11---11---11---7---7---7---7|
E |----------------------------------------------------------------------------| (x6)
B |----------------------------------------------------------------------------|

[Outro]

B |---------------------------------------------------------------------------|
F#|---------------------------------------------------------------------------|
D |---------------------------------------------------------------------------|
A |---------9~---9~-9-9--9-9------------7~---7~---12/11-11/9-9/7-7/9----------|
E |---------7~---7~-7-7--7-7------------5~---5~---10/-9--9/7-7/5-5/7----------| 
B |-0~--0~----------------------0~--0~----------------------------------------|

B |---------------------------------------------------------------------------|
F#|---------------------------------------------------------------------------|
D |---------------------------------------------------------------------------|
A |---------9~---9~-9-9--9-9-----------14~------------------------------------|
E |---------7~---7~-7-7--7-7-----------12~--------SLIDE-----------------------| 
B |-0~--0~----------------------0~--0~----------------------------------------|


************************************

| /   Slide up
| \   Slide down
| ~   Hold Note
| SLIDE Plectrum Slide

************************************

            
            
Suggest correction
Creating personal tab
Creating personal tab
You can edit any tab online and save it as your Personal.

You can edit, replace or remove any tab part or add personal notes – all changes will be seen only by you.

Personal tabs can be accessed anytime from any device, even offline.
Learn more »
Give kudos to tab author, rate the tab!
1 2 3 4 5
comments
print report bad tab
2 comments total.
+1 reply
garret2 10 Oct 23, 2017 12:08 AM

Thank you for the Tab! I’m just learning and man is this fun to work on. I tried to view the YouTube link but it doesn’t work. I would love to view the tutorial. Thanks again👍🏻

0 reply
Pokrzy 915 Oct 28, 2017 02:42 PM

Hi Garret! Thanks for Your comment, it seems like link is working, check it again, if no -> youtube -> "type o negative paranoid lesson pkrz". Cheers and play it loud! :)

guest
You may want to rate the tab now too:
select rating
Wanna post a correction for this tab? Suggest correction