Oops, an error
Loading. Please wait.

White Slavery bass

version 1
version 1

Whole song

Interactive

1,141 views 6 this week
no commentswrite comment
1 2 3 4 5
1 last vote to show rating
add to favorites
×
Save as Personal and add changes to this tab that will be seen only by you. Learn more ›
×
You can save this tab as Personal to edit and correct it or add notes. All changes will be seen only by you. Learn more »
launch autoscroll
font size
0
reset
guitar tuner
edit
Autoscroll
slow
fast
+/-
esc
set tempo
stop
Author
Difficulty
Type O Negative -  White Slavery
off World Coming Down album in 1999
 
ment for 5 string bass you can down tune your 4 string


^ bend
p pull off
/ slide up
\ slide down

 use heavy distortion 

Intro  repeat 2 times
G|-------------------------------------|
D|-------------------------------------|
A|-------------------------------------|
E|--------5^^-----4^^-----2-1---1-2-3--|
B|-5^^----------4-------4-----2--------|

Verse  repeat 4 times
G|-------------------------------------------------------------|
D|-------------------------------------------------------------|
A|-------------------------------------------------------------|
E|-4-----------4-4-6----------6-6-0----------0-0-2-2-2-2-2-2-2-|
B|-------------------------------------------------------------|

repeat Intro 2x

repeat Verse 4x

Chorus repeat 3 times then do the alt once
G|---------------------------------------------------------------------|
D|---------------------------------------------------------------------|
A|---------------------------------------------------------------------|
E|-9-9-9-9-9-9-11-9-8-8-8-8-8-8-10-8-7-7-7-7-7-7-9-7-6-6-6-6-6-6-6-6-7-|
B|---------------------------------------------------------------------|

Chorus alt
G|---------------------------------------------------------------------|
D|---------------------------------------------------------------------|
A|---------------------------------------------------------------------|
E|-9-9-9-9-9-9-11-9-8-8-8-8-8-8-10-8-7-7-7-7-7-7-7-7-6-6-6-6-6-6-6-6-6-|
B|---------------------------------------------------------------------|

repeat Verse 2x

repeat Verse 4x 

repeat Chorus 3

Chorus alt 1x

Bridge: repeat 4 times
G|-----------------------------------------|
D|-----------------------------------------|
A|----------------------------9p8-9p8-9p8--|
E|-11---11-6--6-8-9---/16\-----------------|
B|-----------------------------------------|

repeat Chorus 3x

Chorus alt 1x

repeat Bridge 4x

Outro
G|---------------------------------------------|
D|---------------------------------------------|
A|---------------------------------------------|
E|-13-12-11-10-9-8-7-6-5-4-3-2-----------------|
B|-----------------------------6-5-4-3-0-------|


            
            
Suggest correction
Creating personal tab
Creating personal tab
You can edit any tab online and save it as your Personal.

You can edit, replace or remove any tab part or add personal notes – all changes will be seen only by you.

Personal tabs can be accessed anytime from any device, even offline.
Learn more »
Give kudos to tab author, rate the tab!
1 2 3 4 5
comments
print report bad tab
guest
You may want to rate the tab now too:
select rating
Wanna post a correction for this tab? Suggest correction