Oops, an error
Loading. Please wait.

My Farewell tab

version 2
version 2

Whole song

194 views 1 this week
no commentswrite comment
1 2 3 4 5
2 more votes to show rating
add to favorites
×
Save as Personal and add changes to this tab that will be seen only by you. Learn more ›
×
You can save this tab as Personal to edit and correct it or add notes. All changes will be seen only by you. Learn more »
launch autoscroll
font size
0
reset
how to read this tab
guitar tuner
edit
Autoscroll
slow
fast
+/-
esc
set tempo
stop
Song:My Farewell
Album:Every Moss and Cobweb
Artist:Typecast
Date Tabbed:January,2007
Guitar Tabber:Ryan Manongdo/16/m/Montalban Rizal
              no_falter0x@yahoo.com(Friendster and YM)

Notes:This is not a guitar tab,this is a BASS tab!!Nag-kmali aq ng pasa eh...

Gtr.Legends:
. - palm muting
\ - slide
~ - let it ring

Gtr.Tuning:Drop D
              
Intro:
G|------------------------------------------------------------------|
D|--------------------------------------------2---------------------| 2x
A|-00-00-00-00---00-00-00-00---22-22-22--2222---4---22-22-22--------|
D|------------------------------------------------------------4h6---|
   .. .. .. ..   .. .. .. ..   .. .. .. 

Verse:Now I know...
G|---------------------------------------|
D|---------------------------------------|
A|-0~--4-444444~---0~---4444444~----0~---|
D|---------------------------------------|

Chorus:I'm lost without you...
G|---------------------------------------------|
D|---------------------------------------------| 2x
A|-0000000000000---44-44-44-44---44-44-44-44---|
D|---------------------------------------------|
                   .. .. .. ..   .. .. .. ..

Pre-Verse 2:Repeat Intro prt.1 1x

Verse 2:Let this paper...
Play Verse 1

Repeat Chorus:

Bridge:
G|----------------------------------------------------------------------------------|
D|----------------------------------------------------------------------------------|
A|-0~---0~----44444--22222--00000000000---77777--444444--222222--00000000--0~---0---|
D|----------------------------------------------------------------------------------|

Repeat Chorus:

Outro Chorus:Without you...
G|-----------------------------|
D|-----------------------------| 2x
A|-000000000000--44444444444---|
D|-----------------------------|

Outro:
G|----------------|
D|----------------|
A|----------------|
D|-77-77-77-7\2---|

End...

My Farewell Lyrics:

Verse 1:
Now i know i should go
She left me,left me here

Chorus:
Im lost without you,you ended this day
The day i wished that never came,im lost without you

Verse 2:
Let this paper be my ticket
A oneway ride to nowhere
For i have no word,this is my goodbye

Repeat Chorus:

Outro Chorus:
Without you
Without you!without you oh!


            
            
Suggest correction
Creating personal tab
Creating personal tab
You can edit any tab online and save it as your Personal.

You can edit, replace or remove any tab part or add personal notes – all changes will be seen only by you.

Personal tabs can be accessed anytime from any device, even offline.
Learn more »
Give kudos to tab author, rate the tab!
1 2 3 4 5
comments
print report bad tab
guest
You may want to rate the tab now too:
select rating
Wanna post a correction for this tab? Suggest correction