Oops, an error
Loading. Please wait.

Not About You tab

version 1
version 1

Whole song

1,262 views 1 this week
9 commentsread comments
1 2 3 4 5
x 4
add to favorites
×
Save as Personal and add changes to this tab that will be seen only by you. Learn more ›
×
You can save this tab as Personal to edit and correct it or add notes. All changes will be seen only by you. Learn more »
launch autoscroll
font size
0
reset
how to read this tab
guitar tuner
edit
Autoscroll
slow
fast
+/-
esc
set tempo
stop
Typecast
Not About You
Every Moss And Cobweb
2006
Submitted by: paramore_fans@yahoo.com
Mga tol, paki rate na lang tong tab na to, it's closer to 100% accurate. Katono din nito 
A boy brushed living in red... ng Underoath. hehe, kung inaakala ninyong Drop D ito, 
kayo, Standard ito.

Tuning: Standard EADGBe on 3 guitars

Chords used:
C#m -  x46654
A9 -   x02200
E -    022100
F#m -  244222
G#m -  466444
B9 -   x24400
Am -   x02210

Intro: C#m---A9---E---F#m--- (x2)
Guitar 1:
e|---------------------|
B|---------------------|
G|-6---2---------------|
D|-6---2---2---4-------| (x2)
A|-4---0---2---4-------|
E|---------0---2-------|

Guitar 2: Use the up down picking para hindi mangawit ung kamay ninyo, mabilis talaga 
at mahirap pag sa umpisa.
e|-12-------------12------------------|
B|----9-10-12--------9-10-12-----12-9-|
G|--------------9--------------9------|
D|------------9--------------9--------| (x8)
A|------------------------------------|
E|------------------------------------|

Guitar 3: papasok pag 0:11
e|-16-12-14-16----12-16-12-14-16----12-16-12-|
B|-------------12----------------12----------|
G|-------------------------------------------|
D|-------------------------------------------| (x4)
A|-------------------------------------------|
E|-------------------------------------------|


Verse 1: Palm mute
C#m                    A9
  What makes this life meaningful?
       E                        F#m
Did it ever occurred to you the world doesn’t revolve around you
C#m                           A9
  These things you hold won’t save you now
E                   F#m
  All it will do is bring you, bring you


Refrain:
A9                   C#m
down This won’t save you now
                A9                        C#m
This won't save you now, This won't bring you down


Guitar 2: bring you down... at 0:42
e|-------------------------|-2-0-----------0---------|
B|-5-4-----5-4-----5-4-----|-----0---2-4-----4-0-----|
G|-----4-------4-------6-4-|-------1-----1-------2-1-|
D|-------6-------6---------|-------------------------| (x2)
A|-------------------------|-------------------------|
E|-------------------------|-------------------------|
            x2                          x2

Ad lib: F#m-G#m-A9-B9; C#m-------- F#m-G#m-A9-B9


Chorus:
E                           F#m
  Love is precious, love is fragile
       C#m
Love I endless, love is everything and everything is what you don’t have
(Repeat)

(Repeat Intro but once only)


Verse 2:
C#m                          A9
  You thought your life will be that easier
      E
Those things will blind you, and then you’ll give in
F#m
Then you’ll give up then you’ll wake up
C#m                           A9
  These things you hold won’t save you now
E                   F#m
  All it will do is bring you down, bring you


(Repeat Refrain & Chorus skipping ad lib)


Bridge:
A9       G#m  C#m              A9   G#m C#m
  You're all alone is that you want?
A9       G#m  C#m                   A9   
C#m
  You're all alone is that what you want?


Guitar 2:
e|-------------------0-|
B|-----0------0------0-|
G|-1h2----1h2----1h2---|
D|---------------------| (x4)
A|---------------------|
E|---------------------|

A9                       Am
This won't save you now, This won't bring you down
C#m
This won't save you now, This won't bring you down
A9
This can't save you now, This won't bring you down
C#m
This won't save you now, This won't bring you down

(Repeat Intro until fade)

Outro: C#m---A9(hold)

            
            
Suggest correction
Creating personal tab
Creating personal tab
You can edit any tab online and save it as your Personal.

You can edit, replace or remove any tab part or add personal notes – all changes will be seen only by you.

Personal tabs can be accessed anytime from any device, even offline.
Learn more »
comments
print report bad tab
9 comments total. Showing first comments.
0 reply
adbotgirl 10 Jun 11, 2007 06:19 AM

'di ba tapping 'yung intro nun...

0 reply
gungravealex 10 Sep 30, 2007 01:37 AM

uu nga tapping...

0 reply
gungravealex 10 Sep 30, 2007 01:38 AM

reply nmn sana agad (//_^)\/,

guest
You may want to rate the tab now too:
select rating
Wanna post a correction for this tab? Suggest correction