Oops, an error
Loading. Please wait.

Phoenix tab

version 2
version 2

Whole song

1,011 views 1 this week
no commentswrite comment
1 2 3 4 5
3 more votes to show rating
add to favorites
×
Save as Personal and add changes to this tab that will be seen only by you. Learn more ›
×
You can save this tab as Personal to edit and correct it or add notes. All changes will be seen only by you. Learn more »
launch autoscroll
font size
0
reset
how to read this tab
guitar tuner
edit
Autoscroll
slow
fast
+/-
esc
set tempo
stop
Author
Difficulty
Tab by - MarFy


Intro:

Harmonics po yan parehas lng yan sa una dahil harmonics yan
e------------------------------------]
B----------7-------------------------]
G------5-----------------------------]
D------------------------------------]
A------------------------------------]
E------------------------------------]

e--------------------5-2--------------------------5-2-----------------]
B------------------------3-2--------------------------3-2---5---------]
G---------------------------------------------------------2-----------]
D------4-4-4-4\5---------------------4-4-4-4\5------------------------]2x
A------2-2-2-2\7----------------------2-2-2-2\7-----------------------]
E---------------------------------------------------------------------]

e---------------------------------------------------------------------------|I
B--------5h7----------------------------------------------------------------|I
G------------4h6--2h4-------------------------------------------------------|I
D--44444---------------2h4--------------------------------------------------|I
A--22222--------------------4-----------------------------------------------|I
E---------------------------------------------------------------------------|I

e---------------------------------------------------------------------------|I
B--------5h7----------------------------------------------------------------|I
G------------4h6--2h4-------2-----------------------------------------------|I
D--44444---------------2h4--------------------------------------------------|I
A--22222--------------------------------------------------------------------|I
E---------------------------------------------------------------------------|I
2x yan ung dalawang yan tpos power chords na B at lipat agad sa D psensya n di ko na 
nkakatamad ksi saka kulang sa oras


Verse :

G-D ayan tpos pause yan
G-em 2x yan
D

Chorus :

D-G-em   bsta pakinggan nyo nlng poh
D bsta po d ung laging magtatapos

tpos ng chorus

e----------------------------2-----------------------]
B----------3--------5------------------2-------------]
G----------------------------------------------------]
D----4-4-4----4-4-4----4-4-4-----4-4-4---------------]2X
A----2-2-2----2-2-2----2-2-2-----2-2-2---------------]
E----------------------------------------------------]



Senxa na kau kung may mali ha,.. First time ko lng magpasa ng Tabs eh,..
kung may comment man kau,..
e email nyo marfy_evai14@yahoo.com

paki add na rin 2 
Marifor_01@yahoo.com
ashanti_amiel_bhezz@yahoo.com

yan po,..

atsaka po paki rate na rin po ung tabs ko,..

thnx po,..

            
            
Suggest correction
Creating personal tab
Creating personal tab
You can edit any tab online and save it as your Personal.

You can edit, replace or remove any tab part or add personal notes – all changes will be seen only by you.

Personal tabs can be accessed anytime from any device, even offline.
Learn more »
Give kudos to tab author, rate the tab!
1 2 3 4 5
comments
print report bad tab
guest
You may want to rate the tab now too:
select rating
Wanna post a correction for this tab? Suggest correction