Oops, an error
Loading. Please wait.

Phoenix tab

version 4
version 4

Whole song

1,728 views 1 this week
2 commentsread comments
1 2 3 4 5
2 more votes to show rating
add to favorites
×
Save as Personal and add changes to this tab that will be seen only by you. Learn more ›
×
You can save this tab as Personal to edit and correct it or add notes. All changes will be seen only by you. Learn more »
launch autoscroll
font size
0
reset
how to read this tab
guitar tuner
edit
Autoscroll
slow
fast
+/-
esc
set tempo
stop
PHOENIX
by:Typecast


*=harmonics

Intro:
e---------------|
B--------7*-----|
G----0/5*-------|
D---------------|
A---------------|
D---------------|

e|---------------------------]
B|---------------------------]
G|---44447-----------7-4-----]
D|---44447(break)--------5-4-]
A|---22225-------------------]
D|---------------------------]

e|--------------------------------]
B|--------------------------------]
G|---44447-----------7-4----------]
D|---44447(break)--------5-4------]
A|---22225----------------------7-]
D|----------------------------7---]

e|-------------------------12*-]
B|-----------------------------]
G|---44447----------7-4--------]
D|---44447(break)-------5-4----]
A|---22225---------------------]
D|-----------------------------]

e|--------------------------------]
B|--------------------------------]
G|---44447-----------7-4----------]
D|---44447(break)--------5-4------]
A|---22225----------------------7-]
D|----------------------------7---]




e------------------------------------------------------------------------]
B------------------------------------------------------------------------]
G-------------------5h7--------------------------------5h7---------------]
D-----4-4-4-4-5--------4h6-2h4----------4-4-4-4-5---------4h6-2h4--------]2x
A-----2-2-2-2-7---------------2h4-2-----2-2-2-2-7----------------2h4/7---]
D------------------------------------------------------------------------]

Verse 1:
      B D
e|------------------]
B|------------------]
G|---44447----------]
D|---44447(break)---]
A|---22225----------]
D|------------------]
          I'll rise above the clouds...

e|---------------------------]
B|---------------------------]
G|---7-----------------------]
D|---7---555555555-----------]
A|---5---555555555-----------]
D|-------555555555-----------]
or
e|---12*----------------------]
B|---12*----------------------]
G|---12*----------------------]
D|--------555555555-----------]
A|--------555555555-----------]
D|--------555555555-----------]
           you're voice kept me alive....

     B D
e|------------------]
B|------------------]
G|---44447----------]
D|---44447(break)---]
A|---22225----------]
D|------------------]
          i'll spread my wings and fly..

e|---------------------------]
B|---------------------------]
G|---7-----------------------]
D|---7---555555555-----------]
A|---5---555555555-----------]
D|-------555555555-----------]
           i'll return for you again my love..

refrain: 
        E2x        G2x           E2x         G2x
e|------------------------------------------------------------]
B|------------------------------------------------------------]
G|----------------------------------------------------7-8-10--]
D|---222222222---555555555----222222222---555555555---7-------]
A|---222222222---555555555----222222222---555555555---5-------]
D|---222222222---555555555----222222222---555555555-----------]

       I’ve kept all that i’ve gained 
       Your smile and how your eyes shine 
       Am i strong enough to be with you again? 
       If i’m not, i’ll stretch my arms for you to hold 

Chorus:
         D2x        G2x          E2x         G2x      D(break)
e|------------------------------------------------------------]
B|------------------------------------------------------------]
G|---777777777----------------------------------------7-------]
D|---777777777---555555555----222222222---555555555---7-------]
A|---555555555---555555555----222222222---555555555---5-------]
D|---------------555555555----222222222---555555555-----------]
     I’m ready 
Hold me tight once more 
And slowly, 
We’ll pick up the pieces we’ve lost  



(try thiz too,..choruz part...yeah!)
e|-----------------------------------------------------------]
B|-----------------------------------------------------------]
G|-----------------------------------------------------------]
D|---000000000---555555555----222222222---555555555---0------]
A|---000000000---555555555----222222222---555555555---0------]
D|---000000000---555555555----222222222---555555555---0------]break!




after chorus:
e-------------------------------------]
B-------------------------------------]
G--------77-----99-----11-----77------]
D---000----000----000----000----------]4X
A---000----000----000----000----------]
D---000----000----000----000----------]

e--------------------------------------------------------]
B--------------------------------------------------------]
G---------7777------109109------12111211------8787-------]
D---000000----000000------000000--------000000------0----]
A---000000----000000------000000--------000000------0----]
D---000000----000000------000000--------000000------0----]

verse 2:
      B D
e|--------------]
B|--------------]
G|---7----------]
D|---7(break)---]
A|---5----------]
D|--------------]      
       The battles i fought Unruly,
e|---------------------------]
B|---------------------------]
G|---7-----------------------](bahala na kayo za ztrumming..)
D|---7---555555555-----------]
A|---5---555555555-----------]
D|-------555555555-----------]
     but won gloriously ...
e|--------------]
B|--------------]
G|---7----------]
D|---7(break)---]
A|---5----------]
D|--------------] 
          im your lord knight, i gained so much 

e|---------------------------]
B|---------------------------]
G|---7-----------------------]
D|---7---555555555-----------]
A|---5---555555555-----------]
D|-------555555555-----------]
         But still, i need you here

(repeat refrain pattern)
(repeat chorus pattern)

outro:

e-------------------------------------]
B-------------------------------------]
G--------77-----99-----11-----77------]
D---999----999----999----999----------]
A---999----999----999----999----------]
D---999----999----999----999----------]


thiz tab iz not perfectly right..(70/30)
...x)


tabbed by..lorenzo sayson...

            
            
Suggest correction
Creating personal tab
Creating personal tab
You can edit any tab online and save it as your Personal.

You can edit, replace or remove any tab part or add personal notes – all changes will be seen only by you.

Personal tabs can be accessed anytime from any device, even offline.
Learn more »
Give kudos to tab author, rate the tab!
1 2 3 4 5
comments
print report bad tab
2 comments total.
0 reply
jebus07 37 Jan 26, 2007 01:48 PM

si enzo nagpapachupa sa bading. titi nyan baluktot whahahahah lol

0 reply
jebus07 37 Jan 26, 2007 01:49 PM

lol wala ako magawa geh. tatawagan ko lng si jak.

guest
You may want to rate the tab now too:
select rating
Wanna post a correction for this tab? Suggest correction