Oops, an error
Loading. Please wait.

She Wont Understand tab

version 3
version 3

Whole song

499 views 1 this week
no commentswrite comment
1 2 3 4 5
3 more votes to show rating
add to favorites
×
Save as Personal and add changes to this tab that will be seen only by you. Learn more ›
×
You can save this tab as Personal to edit and correct it or add notes. All changes will be seen only by you. Learn more »
launch autoscroll
font size
0
reset
how to read this tab
guitar tuner
edit
Autoscroll
slow
fast
+/-
esc
set tempo
stop
Difficulty
(_she_wont_understand_)
------typecast--------

tabbed by: khej 
(emotional_me08@yahoo.com<---friendster koh poh--)

amF!..e2 nlng tnagnan nio..puro mali kc ung mga pinopost ng iba e..
napaka dali n nga mali pa..geh..sure ako jan 97%! bhla n kau sa mga strumming..
kung my mali pa rin jan, kau nabhala..leche! e d kau ang kumapa..hahaha

napaka lungkot ng kantang 2 kya kinapa koh..ztig tlga mga kanta ng typecast!..
emo/screamo rules!..

(standard tuning)


intro:
e|---------------------------------------|
B|---5--------------------5--------------|
G|----5----5---------------5--5----------|
D|-----5--------------------5------------|
A|--3---3----------------2---2-----------|
E|---------------------------------------|

e|---------------------------------------|
B|---5--------------------5--------------|
G|----5--------------------5-------------|
D|-----5--------------------5------------|
A|---------------------------------------|
E|--5---5----------------3---3-----------|
con't--
e|----------------------0----------------|
B|------5--6---8-65-----0----------------|
G|----5--5-------55-----0----------------|
D|----------------------0----------------|
A|----------------------0----------------|
E|----------------------0----------------|

verse:(..amf! pakinggan nio nlng ung strumming ha)
e|---------------------------------------|
B|---------------------------------------|
G|---5~-----5~---------------------------|
D|---5~-----5~----3~-----5~--------------|(2x)
A|---3~-----2~----3~-----5~--------------|
E|----------------1~-----3~--------------|
    
e|---------------------------------------|
B|---------------------------------------|
G|---------------------------------------|
D|--3~----------------------5~-----------|
A|--3~----------------------5~-----------|
E|--1~----------------------3~-----------|
   i'll write all the things.........

     
e|---------------------------------------|
B|---------------------------------------|
G|---5--5--------------------------------|
D|---5--5--7--5--3--(fast switching)-----|
A|---3--2--7--5--3-----on this part------|
E|---------5--3--1-----------------------|
       but it won't be easy .......


prechorus/outro:( palm mute up & down strumming..)
e|---------------------------------------|
B|---------------------------------------|
G|------------5-------------------5~-----|
D|--7----5----5----3----7----5----5~-----|  
A|--7----5----3----3----7----5----3~-----| 
E|--5----3---------1----5----3-----------|
 *****************************************
chorus:
e|---------------------------------------|
B|---------------------------------------|
G|---5----4------------------------------|
D|---5----5----7------3------------------|(2x)
A|---3----2----7------3------------------|
E|-------------5------1------------------|

------------(verse chords)----------------

e|---------------------------------------|
B|---------------------------------------|
G|---5--5--------------------------------|
D|---5--5--7--5--3--(fast switching)-----|
A|---3--2--7--5--3-----------------------|
E|---------5--3--1-----------------------|
       but it won't be easy .......

-------(repeat chorus chords(4x)----------
------(repeat prechorus/outro chords)----

(para sa mga hnd marunong mag basa ng tab)

amf! cguro nmn power chords alam niu?!

verse:
C-Csumtin-F-G
F-G
C-Csumtin-A-G-F

prechorus:

A-G-C-F
A-G-C

CHORUS:

C-Csumtin-A-F

lyrics:

am i boring you out? am i disturbing your pace? did i break anything on you
that would drip down your sail? did I troubled your life? did I make you
aware? you've said you know it all and i do hope you're right.

i'll write all the things you are today, 
but it won't be easy cause it will bother your way.

prechorus/outro:
im sorry for caring for you, im sorry... and it hurts falling for you.

chorus:
she wont understand
she puts her mind on what she knows, she wont know
anything, she wont know everything

verse:
You are breaking me out you dont have a chance too see, your words tear a
thousand pieces and it falls all over me. can we make up for it? you wont
make up for me. you go on your way and listen to things that you want to
hear.

chorus:
she wont understand
she puts her mind on what she knows, she wont know
anything, she wont know everything

she know's...

outro:
im sorry for caring for you, im sorry... and it hurts falling for you.

(sana nag enjoi kau sa tab koh mga fucker'z!)hahaha

ROCK on NGA PLA sa mga bandm8tz koh sa s.t.i southwoodz (_Romantic_vengeance_)
@ sa mga tropa koh (_batas_coe_)_(_i.t_dabarkadz_)...alabyu mga tol!..hahahahaha!!\m/ 

            
            
Suggest correction
Creating personal tab
Creating personal tab
You can edit any tab online and save it as your Personal.

You can edit, replace or remove any tab part or add personal notes – all changes will be seen only by you.

Personal tabs can be accessed anytime from any device, even offline.
Learn more »
Give kudos to tab author, rate the tab!
1 2 3 4 5
comments
print report bad tab
guest
Wanna post a correction for this tab? Suggest correction