Oops, an error
Loading. Please wait.

Wait tab

version 1
version 1

Whole song

164 views 1 this week
no commentswrite comment
1 2 3 4 5
1 last vote to show rating
add to favorites
×
Save as Personal and add changes to this tab that will be seen only by you. Learn more ›
×
You can save this tab as Personal to edit and correct it or add notes. All changes will be seen only by you. Learn more »
launch autoscroll
font size
0
reset
how to read this tab
guitar tuner
edit
Autoscroll
slow
fast
+/-
esc
set tempo
stop
Author
Artist:Typecast
Album:The Infatuaton is Always There
Song: Wait (12th Track)


x - muted note
/ - slide
. - palm mute

Note:just listen to the song for timings and strumming 
Dropped D Tuning DADGBE
Use Distortion with High Low End

INTRO GTR REPEAT 2x                                    
e|--------------------------------------------------------------- ------------|
B|--------------------------------------------------------------- ------------|
G|--99999999/11/12/11-999999999/14141414--9999999999999/1111/12-- -1111111111-| GTR 2 ENTERS
D|--xxxxxxxx-x--x--x--xxxxxxxxx-xxxxxxxx--xxxxxxxxxxxxx-xxxx-xx-- -xxxxxxxxxx-| THE 2ND TIME
A|--77777777/9-/10/9--777777777/12121212--7777777777777/9999/10-- -9999999999-|
D|--------------------------------------------------------------- ------------|  

VERSE
GTR 1
e|-------------------------------------------|
B|-------------------------------------------|
G|-9b~-11b~-12b~---8888/9999/1010/12/11/8----|
D|-x~--x~--x~------xxxx/xxxx/xxxx/-x/-x/x----|
A|-7b~--9b~-10b~---6666/7777/8888/10/-9/7----|
D|-------------------------------------------|

GTR 2
e|----------------------------------------|
B|----------------------------------------|
G|----------------8888888888--------------|
D|-555555555------xxxxxxxxxx--------------|
A|-555555555------6666666666--------------|
D|-555555555------------------------------|

DO INTRO 2X
THEN BRIDGE PT 1 2X
  
GTR 1                                       GTR 2 
e|----------------------------------------- ------|
B|----------------------------------------- ------|
G|-6/777/999/1111/12/11/10/8888/7777/8/7/8- -7~---| JUST LISTEN WHERE
D|-x/xxx/xxx/-xxx/-x--x--x-xxxx-xxxx/x-x-x- -7~---| IT WILL ENTER
A|-4/555/777/-999/10/-9-/8/6666/5555/6/5/6- -5~---|
E|----------------------------------------- ------|

REPEAT INTRO
THEN
BRIDGE PT 2

BASS AND DRUM BEATS W/ CLEAN GUITAR USING DELAY AND CHORUS
e|----------------------------------------|
B|----------------------------------------|
G|-------5------------5----------5--------| REPEAT MANY TIMES
D|-----5---5--------5---5------5---5------| 
A|-3-3-------3~-3-3-------3-3~-------3~---|
E|----------------------------------------|

REPEAT INTRO
THEN BRIDGE PART 1

LAST CHORDS
e|---------------|
B|---------------|
G|-7~------------|
D|-7~--5~--------|
A|-5~--5~--------|
E|-----5~--------|

~END





            
            
Suggest correction
Creating personal tab
Creating personal tab
You can edit any tab online and save it as your Personal.

You can edit, replace or remove any tab part or add personal notes – all changes will be seen only by you.

Personal tabs can be accessed anytime from any device, even offline.
Learn more »
Give kudos to tab author, rate the tab!
1 2 3 4 5
comments
print report bad tab
guest
You may want to rate the tab now too:
select rating
Wanna post a correction for this tab? Suggest correction