Oops, an error
Loading. Please wait.

Heartland tab

version 2
version 2

Whole song

Interactive

by U2
4,379 views 12 this week
1 commentread comment
1 2 3 4 5
x 4
add to favorites
×
Save as Personal and add changes to this tab that will be seen only by you. Learn more ›
×
You can save this tab as Personal to edit and correct it or add notes. All changes will be seen only by you. Learn more »
launch autoscroll
font size
0
reset
how to read this tab
guitar tuner
backing track
0:00
0:00
edit
Autoscroll
slow
fast
+/-
esc
set tempo
stop
[Intro]

--6---6-8-6-----3------1----------6-6---6-8-6--------3-3------1----------6--|
--6--------6----3------1----------6----------6------ 3-3------1----------6--|
----------------------------------------------------------------------------|
----------------------------------------------------------------------------|
----------------------------------------------------------------------------|
----------------------------------------------------------------------------|


[Riff 1]
  Dm                      Csus2     Dm                     Csus2
-----5--------------5--------3---------5-------------5------3--------|
-----6--------------6--------3---------6-------------6------3--------|
--7--------------7--------5---------7-------------7------5-----------|
---------------------------------------------------------------------|
---------------------------------------------------------------------|
---------------------------------------------------------------------|
       See the sun - rise over her    skin / Don't change    it


[Riff 1]
  Dm                      Csus2     Dm                   Csus2
-----5--------------5--------3---------5-------------5------3--------|
-----6--------------6--------3---------6-------------6------3--------|
--7--------------7--------5---------7-------------7------5-----------|
---------------------------------------------------------------------|
---------------------------------------------------------------------|
---------------------------------------------------------------------|
       See the sun - rise over her    skin / Dawn chan  -  ges...


[Riff 2]
  Bbsus2             Bbsus2 F          C
--------1------------------------------------3---------3-------------|
-----1------------------1------1-------------------------------------|
--3------------------3------2-------------5---------5----------------|
---------------------------------3-----5---------5-------------------|
---------------------------------------------------------------------|
---------------------------------------------------------------------|
  e   -   verything,          everything.               And the del -


[Riff 2]
  Bbsus2             Bbsus2 F              C
--------1----------------------------------------3---------3---------|
-----1------------------1-------1------------------------------------|
--3------------------3------2-----------------5---------5------------|
---------------------------------------3---5---------5---------------|
---------------------------------------------------------------------|
---------------------------------------------------------------------|
  ta   sun /              Burns bright and violent.

[Riff 1]
Mississippi and the cotton wool heat
[Riff 1]
Sixty-six a highway speaks
[Riff 2]
Of deserts dry, of cool green valleys
[Riff 2]
Gold and silver veins -- of shining cities


        Csus2 [(xxxx533) or (xxx78x)]
In this heartland
In this heart, land, soil
In this heartland
Heaven knows this is our land
Heartland
Heartland


[Ad lib]
Dm               Csus2    Dm   Csus2
See the sun rise over her skin
Dm             Csus2     Dm     Csus2
She feels like water in my hand
Dm              Csus2                  Dm   Csus2
Freeway like a river cuts through this land
Into the side of
[Riff 2]
love, like a burning spear. And the poison
[Riff 2]
rain brings a flood of fear. Through the ghostranch
[Riff 2]
hills, Death Valley waters. In the towers of
[Riff 2]
steel belief goes on and on

[Outro]
        Csus2
In this heartland
In this heart, land, soil
In this heartland
Heaven knows this is our land
Heartland
Heaven knows this is our land
Heartland
Heaven knows this is our land
Heartland
Heaven's gate, here is our land
Heartland

            
            
Suggest correction
Creating personal tab
Creating personal tab
You can edit any tab online and save it as your Personal.

You can edit, replace or remove any tab part or add personal notes – all changes will be seen only by you.

Personal tabs can be accessed anytime from any device, even offline.
Learn more »
comments
print report bad tab
1 comment total.
+1 reply
johnfield1 10 Oct 27, 2015 03:41 PM

I have loved playing this through - thank you. For me, the is one of U2's most atmospheric tracks and you have made my evening.

guest
Wanna post a correction for this tab? Suggest correction