Oops, an error
Loading. Please wait.

In A Little While tab

version 2
version 2

Interactive

by U2
26,339 views 3 this week
3 commentsread comments
1 2 3 4 5
x 18
add to favorites
×
Save as Personal and add changes to this tab that will be seen only by you. Learn more ›
×
You can save this tab as Personal to edit and correct it or add notes. All changes will be seen only by you. Learn more »
launch autoscroll
font size
0
reset
how to read this tab
guitar tuner
backing track
0:00
0:00
edit
Autoscroll
slow
fast
+/-
esc
set tempo
stop
Author
#----------------------------------PLEASE NOTE--------------------------------#
#This file is the author's own work and represents their interpretation of the#
#song. You may only use this file for private study, scholarship, or research.#
#-----------------------------------------------------------------------------#

U2
In A Little While

Tabbed by Andres (www.geocities.com/clubtabz)


Hi all!
The hardest part of this song is the riffs order, it varies a lot


GUITAR 1

Riff 1
E-----------------------------------------------------
B-----------------------------------------------------
G---------9----------------11----------------11-------
D-----------11----------------11----------------------
A--10/12-------12---12/13--------13---13/14-----14----
E-----------------------------------------------------

E-----------------------------------------------------
B-----------------------------------------------------
G--12-12----11-------11---9---------------------------
D--12-12----12----12-12--11---------------------------
A--------12-------12-----12----0----------------------
E-----------------------------------------------------


Riff 2
E-------------------------------------------------
B-------------------------------------------------
G---------9----------------11------------11-------
D-----------11----------------11------------------
A--10/12-------12---12/13--------13/14------14----
E-------------------------------------------------

E-------------------------------------------------
B-------------------------------------------------
G--12-11-12-11----12--12-11----9--------9---------
D--12-12-12-12----12--12-12---11-------11---------
A-----------------------------12----12------------
E-------------------------------------------------


Riff 3
E--2--2-2---3------2----------------
B--3--3-3---3--3---3--3-3---2--2----
G--4--------0--0---2--2-2---2--2----
D--4---------------0--------2-------
A-----------------------------------
E-----------------------------------


GUITAR 2

Riff 1
E---------------------------------------------------
B-------------------------------------------9-------
G-------------7------------11--11-11---9--9----9----
D--------------------------12--12-12--11------------
A---------------------/9----------------------------
E--5-x-6--6/7---2/3---------------------------------


Riff 2
E--------7--7---7----7--7-----------------------
B--------------------8--8----7--5---------------
G----------------------------7--6---2/4--6p4----
D--7/9------------------------------------------
A-----------------------------------------------
E-----------------------------------------------


Riff 3
E-----------------------------------------------
B----------7------------------------------------
G--6/7---9---9--7-------7-------7-7--9--9--9----
D------------------9------9-7-------------------
A-----------------------------------------------
E-----------------------------------------------


Riff 4
E--------------------------------------------------
B-------------------------------12---5--7--5--7----
G-----11--9h11p9-9---7-9-11/12--12---6--7--6--7----
D--9-----------------------------------------------
A--------------------------------------------------
E--------------------------------------------------


Riff 5
E------------------------
B--7---8---7---5--5------
G--------------6--6------
D------------------------
A------------------------
E------------------------


INTRO and VERSE
Guitar 1:
  Riff 1 (2x)
  Riff 2
  Riff 1 (2x)
  Riff 2
Guitar 2 (enters at the middle of the verse)
  Riff 1 (2x)

1st CHORUS
Guitar 1:
  Riff 3
Guitar 2:
  Riff 2

2nd VERSE
Guitar 1:
  Riff 2 (4x)
Guitar 2:
  Riff 1 (4x)

2nd CHORUS
Guitar 1:
  Riff 3 (2x)
  Chords: Bm G A D A D (2x)
Guitar 2:
  Riff 2
  Riff 3
  Riff 4 (2x)

3rd VERSE
Guitar 1:
  Riff 2
Guitar 2:
  Riff 1

CHORUS
Guitar 1:
  Riff 3 (2x)
  Chords: Bm G A D A D (2x)
Guitar 2:
  Riff 2
  Riff 3
  Riff 4
  Riff 5

End in D
E------------------------
B--7---------------------
G--7---------------------
D--7---------------------
A--5---------------------
E------------------------


Hope you get it
Comments and questions to la_laker83@hotmail.com

            
            
Suggest correction
Creating personal tab
Creating personal tab
You can edit any tab online and save it as your Personal.

You can edit, replace or remove any tab part or add personal notes – all changes will be seen only by you.

Personal tabs can be accessed anytime from any device, even offline.
Learn more »
comments
print report bad tab
3 comments total.
0 reply
SlinkyNimrodEAD 0 Feb 22, 2002 07:00 PM

It's actually ez-er to play than you make it. Check out some of the other versions.

0 reply
doctortab 10 Dec 21, 2006 12:37 PM

i think your playing in the wrong key start on 7 and it should be good

0 reply
clearfin 83 Oct 11, 2010 07:49 AM

For "Riff one" it should be more like this:

E-------------------------------------------------------
B-------------------------------------------------------
G---------9----------------11----------------11---------
D-----------11----------------12------------------------
A--11/12-------12---12/13--------13---13/14-----14--12--
E-------------------------------------------------------

E------------------------------
B------------------------------
G--12-12-----11-------11---9---
D--12-12-----12-------12---11--
A--------12--12---12-------12--
E------------------------------

guest
You may want to rate the tab now too:
select rating
Wanna post a correction for this tab? Suggest correction