Oops, an error
Loading. Please wait.

Invisible tab

version 2
version 2

Whole song

Interactive

by U2
431 views 1 this week
no commentswrite comment
1 2 3 4 5
1 last vote to show rating
add to favorites
×
Save as Personal and add changes to this tab that will be seen only by you. Learn more ›
×
You can save this tab as Personal to edit and correct it or add notes. All changes will be seen only by you. Learn more »
launch autoscroll
font size
0
reset
how to read this tab
guitar tuner
backing track
0:00
0:00
edit
Autoscroll
slow
fast
+/-
esc
set tempo
stop
------------------------------------------------------------------------------
                             Invisible - U2
------------------------------------------------------------------------------
Tabbed by: Harry Blunt

Tune down 1/2 step. All chords relative to tuning.

Chords used:
     E   E*  A   A*  F#m  G#m  E/G#  C#m  B
Eb|--0---7---0---5----2----4----4-----4---2--|
Bb|--0---9---2---5----2----4----5-----5---4--|
Gb|--1---9---2---6----2----4----4-----6---4--|
Db|--2---9---2---7----4----5----6-----6---4--|
Ab|--2---7---0---7----4----5----7-----4---2--|
Eb|--0---x---x---5----2----4----4-----x---x--|


------------------------------------------------------------------------------


Bass intro tabbed for guitar:
Eb|--------------------------|
Bb|--------------------------|
Gb|--------------------------|
Db|--------------9-----------|
Ab|----7---7---7---7---------|
Eb|--0---0---0---------------|


1st Guitar:
Eb|-------------------------------------------------------------|
Bb|--12-(repeat)------------------------------------------------|
Gb|-------------------------------------------------------------|
Db|-------------------------------------------------------------|
Ab|-------------------------------------------------------------|
Eb|-------------------------------------------------------------|

2nd Guitar (background, let ring):
Eb|-------------------------------------------------------------|
Bb|--10--12-----------------------------------------------------|
Gb|-------------------------------------------------------------|
Db|-------------------------------------------------------------|
Ab|-------------------------------------------------------------|
Eb|-------------------------------------------------------------|


              E                      A
Synth:
Eb|-----------------------------------------------------------|
Bb|--12b14r12-9---12b14r12-9---7b9r7-----7b9r7------------9---|
Gb|----------------------------------6---------6---9b11r9-----|
Db|-----------------------------------------------------------|
Ab|-----------------------------------------------------------|
Eb|-----------------------------------------------------------|

     E
     It’s like the room just cleared of smoke
(Palm mute)
Eb|-----------------------------------------------------------|
Bb|--12-12-12-12-12-12-12-12-9-9-9-9-9-9-9-9------------------|
Gb|--9--9--9--9--9--9--9--9--9-9-9-9-9-9-9-9------------------|
Db|-----------------------------------------------------------|
Ab|-----------------------------------------------------------|
Eb|-----------------------------------------------------------|

     E
     I didn’t even want the heart you broke
(Palm mute)
Eb|-----------------------------------------------------------|
Bb|--12-12-12-12-12-12-12-12-9-9-9-9-9-9-9-9------------------|
Gb|--9--9--9--9--9--9--9--9--9-9-9-9-9-9-9-9------------------|
Db|-----------------------------------------------------------|
Ab|-----------------------------------------------------------|
Eb|-----------------------------------------------------------|

     A
     It’s yours to keep
(Palm mute)
Eb|-----------------------------------------------------------|
Bb|-----------------------------------------------------------|
Gb|--6-6-6-6-6-6-6-6-8-8-8-8-8-8-8-8--------------------------|
Db|--7-7-7-7-7-7-7-7-7-7-7-7-7-7-7-7--------------------------|
Ab|-----------------------------------------------------------|
Eb|-----------------------------------------------------------|

     A
     You just might need one
(Palm mute)
Eb|-----------------------------------------------------------|
Bb|-----------------------------------------------------------|
Gb|--6-6-6-6-6-6-6-6-8-8-8-8-8-8-8-8--------------------------|
Db|--7-7-7-7-7-7-7-7-7-7-7-7-7-7-7-7--------------------------|
Ab|-----------------------------------------------------------|
Eb|-----------------------------------------------------------|

     E
     I finally found my real name
(Palm mute)
Eb|-----------------------------------------------------------|
Bb|--12-12-12-12-12-12-12-12-9-9-9-9-9-9-9-9------------------|
Gb|--9--9--9--9--9--9--9--9--9-9-9-9-9-9-9-9------------------|
Db|-----------------------------------------------------------|
Ab|-----------------------------------------------------------|
Eb|-----------------------------------------------------------|

     E
     I won’t be me when you see me
(Palm mute)
Eb|-----------------------------------------------------------|
Bb|--12-12-12-12-12-12-12-12-9-9-9-9-9-9-9-9------------------|
Gb|--9--9--9--9--9--9--9--9--9-9-9-9-9-9-9-9------------------|
Db|-----------------------------------------------------------|
Ab|-----------------------------------------------------------|
Eb|-----------------------------------------------------------|

     A
     again,
(Palm mute)
Eb|-----------------------------------------------------------|
Bb|-----------------------------------------------------------|
Gb|--6-6-6-6-6-6-6-6-8-8-8-8-8-8-8-8--------------------------|
Db|--7-7-7-7-7-7-7-7-7-7-7-7-7-7-7-7--------------------------|
Ab|-----------------------------------------------------------|
Eb|-----------------------------------------------------------|

     A
     No, I won’t be my father’s son
(Palm mute)
Eb|-----------------------------------------------------------|
Bb|-----------------------------------------------------------|
Gb|--6-6-6-6-6-6-6-6-8-8-8-8-8-8-8-8--------------------------|
Db|--7-7-7-7-7-7-7-7-7-7-7-7-7-7-7-7--------------------------|
Ab|-----------------------------------------------------------|
Eb|-----------------------------------------------------------|

Chorus:    F#m              G#m A*                     E/G#
              I’m more than you know, I’m more than you see
Eb|-----9----9----9----9----9----9----9----9------------------|
Bb|-------12--------12--------12--------12--------------------|
Gb|--11--------11--------11--------11--------11---------------|
Db|-----------------------------------------------------------|
Ab|-----------------------------------------------------------|
Eb|-----------------------------------------------------------|

                                        E*
     here, More than you let me be, I’m more than you
Eb|--7----7----7----7----7----7----7----7---------------------|
Bb|----10--------10--------10--------10-----------------------|
Gb|---------9---------9---------9---------9-------------------|
Db|-----------------------------------------------------------|
Ab|-----------------------------------------------------------|
Eb|-----------------------------------------------------------|

     F#m          G#m  A*
     know, A body in a soul, You don’t
Eb|---9----9----9----9----9----9----9----9--------------------|
Bb|-----12--------12--------12--------12----------------------|
Gb|----------11--------11--------11--------11-----------------|
Db|-----------------------------------------------------------|
Ab|-----------------------------------------------------------|
Eb|-----------------------------------------------------------|

    E/G#                         A*
    see me but you will, I am not invisible
Eb|--7----7----7----7----9----9----9--------------------------|
Bb|----10--------10--------12---------------------------------|
Gb|---------9---------9---------11----------------------------|
Db|-----------------------------------------------------------|
Ab|-----------------------------------------------------------|
Eb|-----------------------------------------------------------|

     E                       A
         (That's right, I’ll be in the invisible world)
Synth:
Eb|-----------------------------------------------------------|
Bb|--12b14r12-9---12b14r12-9---7b9r7-----7b9r7------------9---|
Gb|----------------------------------6---------6---9b11r9-----|
Db|-----------------------------------------------------------|
Ab|-----------------------------------------------------------|
Eb|-----------------------------------------------------------|

    E
    I don’t dream, not as such, I don’t even think about you
Eb|-----------12----------12----------12----------12----------|
Bb|-----12----------12----------12----------12----------------|
Gb|--13----13----13----13----13----13----13----13-------------|
Db|-----------------------------------------------------------|
Ab|-----------------------------------------------------------|
Eb|-----------------------------------------------------------|

    A
    that much, Unless I start to think at all
Eb|-----------12----------12----------12----12----------------|
Bb|-----12----------12----------12-------------12-------------|
Gb|--14----14----14----14----14----14----14-------14----------|
Db|-----------------------------------------------------------|
Ab|-----------------------------------------------------------|
Eb|-----------------------------------------------------------|

    E
    All those frozen days, And your frozen ways
Eb|-----------12----------12----------12----------12----------|
Bb|-----12----------12----------12----------12----------------|
Gb|--13----13----13----13----13----13----13----13-------------|
Db|-----------------------------------------------------------|
Ab|-----------------------------------------------------------|
Eb|-----------------------------------------------------------|

     A
     They melt away your face like snow
Eb|-----------12----------12----------12----12----------------|
Bb|-----12----------12----------12-------------12-------------|
Gb|--14----14----14----14----14----14----14-------14----------|
Db|-----------------------------------------------------------|
Ab|-----------------------------------------------------------|
Eb|-----------------------------------------------------------|


Chorus:    F#m              G#m A*                     E/G#
              I’m more than you know, I’m more than you see
Eb|-----9----9----9----9----9----9----9----9------------------|
Bb|-------12--------12--------12--------12--------------------|
Gb|--11--------11--------11--------11--------11---------------|
Db|-----------------------------------------------------------|
Ab|-----------------------------------------------------------|
Eb|-----------------------------------------------------------|

                                        E*
     here, More than you let me be, I’m more than you
Eb|--7----7----7----7----7----7----7----7---------------------|
Bb|----10--------10--------10--------10-----------------------|
Gb|---------9---------9---------9---------9-------------------|
Db|-----------------------------------------------------------|
Ab|-----------------------------------------------------------|
Eb|-----------------------------------------------------------|

     F#m          G#m  A*
     know, A body in a soul, You don’t see me
Eb|---9----9----9----9----9----9----9----9--------------------|
Bb|-----12--------12--------12--------12----------------------|
Gb|----------11--------11--------11--------11-----------------|
Db|-----------------------------------------------------------|
Ab|-----------------------------------------------------------|
Eb|-----------------------------------------------------------|

     E/G#                  A*
     but you will, I am not invisible,  I am here
Eb|--7----7----7----7----9----9----9----9---------------------|
Bb|----10--------10--------12--------12-----------------------|
Gb|---------9---------9---------11--------11------------------|
Db|-----------------------------------------------------------|
Ab|-----------------------------------------------------------|
Eb|-----------------------------------------------------------|


     C#m   F#m      E* B        C#m   F#m      E* B        B
                                I am here,
Solo (alternate picking with lots of echo)
Eb|-----------------------------------------------------------|
Bb|-----14-12-9-7-5-9--7-9-10-9-5--14-12-9-7-5-9--7-9-10-9-0--|
Gb|-----------------------------------------------------------|
Db|-----------------------------------------------------------|
Ab|-----------------------------------------------------------|
Eb|--9--------------------------------------------------------|

                 E
     There is no them, There is no them,
     A
     There’s only us, There’s only us
Eb|-----------------------------------------------------------|
Bb|--12-14-12-9---12-14-12-9---7-9-7-----7-9-7----------------|
Gb|----------------------------------6---------6--------------|
Db|-----------------------------------------------------------|
Ab|-----------------------------------------------------------|
Eb|-----------------------------------------------------------|

                 E
     There is no them, There is no them,
Synth:
Eb|-----------------------------------------------------------|
Bb|--12b14r12-9---12b14r12-9----------------------------------|
Gb|-----------------------------------------------------------|
Db|-----------------------------------------------------------|
Ab|-----------------------------------------------------------|
Eb|-----------------------------------------------------------|

Eb|-----------------------------------------------------------|
Bb|---------------12-12-12-12-12-12-12-12-9-9-9-9-9-9-9-9-----|
Gb|---------------9--9--9--9--9--9--9--9--9-9-9-9-9-9-9-9-----|
Db|-----------------------------------------------------------|
Ab|-----------------------------------------------------------|
Eb|-----------------------------------------------------------|

     A
     There’s only us, There’s only us
Synth:
Eb|-----------------------------------------------------------|
Bb|-----7b9r7-----7b9r7---------------------------------------|
Gb|-----------6---------6-------------------------------------|
Db|-----------------------------------------------------------|
Ab|-----------------------------------------------------------|
Eb|-----------------------------------------------------------|

Eb|-----------------------------------------------------------|
Bb|--12-12-12-12-12-12-12-12-9--9--9--9--9--9--9--9-----------|
Gb|--11-11-11-11-11-11-11-11-11-11-11-11-11-11-11-11----------|
Db|-----------------------------------------------------------|
Ab|-----------------------------------------------------------|
Eb|-----------------------------------------------------------|


                   E
       There is no them, There is no them,
Synth:
Eb|-----------------------------------------------------------|
Bb|--12b14r12-9---12b14r12-9----------------------------------|
Gb|-----------------------------------------------------------|
Db|-----------------------------------------------------------|
Ab|-----------------------------------------------------------|
Eb|-----------------------------------------------------------|

Eb|-----------------------------------------------------------|
Bb|---------------12-12-12-12-12-12-12-12-9-9-9-9-9-9-9-9-----|
Gb|---------------9--9--9--9--9--9--9--9--9-9-9-9-9-9-9-9-----|
Db|-----------------------------------------------------------|
Ab|-----------------------------------------------------------|
Eb|-----------------------------------------------------------|

       A
       There’s only you, And there’s only me,
Synth:
Eb|-----------------------------------------------------------|
Bb|-----7b9r7-----7b9r7---------------------------------------|
Gb|-----------6---------6-------------------------------------|
Db|-----------------------------------------------------------|
Ab|-----------------------------------------------------------|
Eb|-----------------------------------------------------------|

Eb|-----------------------------------------------------------|
Bb|--12-12-12-12-12-12-12-12-9--9--9--9--9--9--9--9-----------|
Gb|--11-11-11-11-11-11-11-11-11-11-11-11-11-11-11-11----------|
Db|-----------------------------------------------------------|
Ab|-----------------------------------------------------------|
Eb|-----------------------------------------------------------|


                 E
     There is no them
Eb|-----------------------------------------------------------|
Bb|--12-12-12-12-12-12-12-12-9-9-9-9-9-9-9-9--(fade out)------|
Gb|--9--9--9--9--9--9--9--9--9-9-9-9-9-9-9-9------------------|
Db|-----------------------------------------------------------|
Ab|-----------------------------------------------------------|
Eb|-----------------------------------------------------------|

            
            
Suggest correction
Creating personal tab
Creating personal tab
You can edit any tab online and save it as your Personal.

You can edit, replace or remove any tab part or add personal notes – all changes will be seen only by you.

Personal tabs can be accessed anytime from any device, even offline.
Learn more »
Give kudos to tab author, rate the tab!
1 2 3 4 5
comments
print report bad tab
guest
You may want to rate the tab now too:
select rating
Wanna post a correction for this tab? Suggest correction