Oops, an error
Loading. Please wait.

Love And Peace Or Else tab

version 2
version 2

Whole song

Interactive

by U2
7,297 views 3 this week
1 commentread comment
1 2 3 4 5
x 5
add to favorites
×
Save as Personal and add changes to this tab that will be seen only by you. Learn more ›
×
You can save this tab as Personal to edit and correct it or add notes. All changes will be seen only by you. Learn more »
launch autoscroll
font size
0
reset
how to read this tab
guitar tuner
backing track
0:00
0:00
edit
Autoscroll
slow
fast
+/-
esc
set tempo
stop
Author
----------------------------------------------------------------------------
                             Love and Peace or Else - U2
----------------------------------------------------------------------------

Song: Love and Peace or Else
Band: U2
Album: How To Dismantle An Atomic Bomb
Tabbed by: Timmy
Tuning: Standard (EADGBE)

This is a new song off of U2's newest album and I just generally
like this song. The intro is awesome but theres no guitar so I didn't
include anything for the intro. Anyway, here's the rest of the song
and I hope you like it. Enjoy!


VERSE 1: After synth and bass intro. "Lay down..." Listen to the 
song to find the right timing.
e|---------------------------|
B|---------------------------|
G|--7--1010~--10/12-1212-----|
D|--x---x-x~---x--x--x-x-----|
A|--5---8-8~---8-10-1010-----|
E|---------------------------|

"Hey...hey, lay down your treasure" Add distortion here. This 
is basically the main riff so we'll call it that.
e|-------------------------|
B|-------------------------|
G|--7x--1010-7--545--------|
D|--xx---x-x-x--xxx--------|
A|--5x---8-8-5--323--------|
E|-------------------------|
repeat until "I don't know if I can take it" This part is kind
of an interlude thing and just keep strumming the same chord
until "I'm not easy on my knees" . This interlude is used
a couple of different times through the song
e|---------------|
B|---------------|
G|--777777-------|
D|--777777-------|
A|--555555-------|
E|---------------|

CHORUS:
"We need some release, we need some release"
e|-------------------------------|
B|-------------------------------|
G|-------------------------------|
D|-0-2--4-5-4---5-4---5-4--------|
A|-----------5-3---5-3---5-------|
E|-------------------------------|
"We need love and peace..." Back to the main riff.
e|-------------------------|
B|-------------------------|
G|--7x--1010-7--545--------|
D|--xx---x-x-x--xxx--------|
A|--5x---8-8-5--323--------|
E|-------------------------|

VERSE 2: A lot like Verse 1, except with some added effects.
e|----------------------------|
B|----------------------------|
G|--7--1010-7--10/12-1212-----|
D|--x---x-x-x---x--x--x-x-----|
A|--5---8-8-5---8-10-1010-----|
E|----------------------------|
Then run through the Chorus again and play the main riff.

After the main riff comes a piano interlude and you end on
this chord right before the interlude:
e|-----|
B|-----|
G|--7--|
D|--x--|
A|--5--|
E|-----|

Then after that interlude the intro is played again and 
this part comes through. slight palm muting, listen to
the song to hear the picking style, it's a cool riff
e|-----------------------------------------------------|
B|---1515--1515--1515--1515--1515--1515----------------|
G|-14----14----14----14----14----14----14-12//---------|
D|-----------------------------------------------------|
A|-----------------------------------------------------|
E|-----------------------------------------------------|

On the last time you switch to this slide part:
e|------------------------------------------------------------------------|
B|--13/15-151515-15/17-171717-17/18-1818-18/20-202020-191919-19/18-181818-|
G|------------------------------------------------------------------------|
D|------------------------------------------------------------------------|
A|------------------------------------------------------------------------|
E|------------------------------------------------------------------------|

e|---------------------------------------------------------------------|
B|--18/17-1717-17/15-1515-15/13-1313-13/12-1212-12/10-1010-10/8-88-7---|
G|---------------------------------------------------------------------|
D|---------------------------------------------------------------------|
A|---------------------------------------------------------------------|
E|---------------------------------------------------------------------|

e|-----------------------|
B|-7h8-7h8-7h8-7h8-7~~~--|
G|-----------------------|
D|-----------------------|
A|-----------------------|
E|-----------------------|

Rock On.

            
            
Suggest correction
Creating personal tab
Creating personal tab
You can edit any tab online and save it as your Personal.

You can edit, replace or remove any tab part or add personal notes – all changes will be seen only by you.

Personal tabs can be accessed anytime from any device, even offline.
Learn more »
comments
print report bad tab
1 comment total.
0 reply
MrValentine 31 Mar 21, 2007 05:09 PM

You know, this sounds good and all, but I think the Edge plays it in Drop D, because I was watching the Vertigo DVD and it doesn't look like he's playing anything at all like what you have here for the main riffs.

guest
You may want to rate the tab now too:
select rating
Wanna post a correction for this tab? Suggest correction