Oops, an error
Loading. Please wait.

No Line On The Horizon tab

version 1
version 1

Whole song

Interactive

by U2
16,804 views 9 this week
3 commentsread comments
1 2 3 4 5
x 7
add to favorites
×
Save as Personal and add changes to this tab that will be seen only by you. Learn more ›
×
You can save this tab as Personal to edit and correct it or add notes. All changes will be seen only by you. Learn more »
launch autoscroll
font size
0
reset
how to read this tab
guitar tuner
backing track
0:00
0:00
edit
Autoscroll
slow
fast
+/-
esc
set tempo
stop
Author
-------------------------------------------------------------------------------
                             NO LINE ON THE HORIZON- U2
-------------------------------------------------------------------------------
Tabbed by:  Corporal_Clegg
U2- No Line on the Horizon (2009)

Tuning:  Standard

Intro (0:06):

e|------------------------------------|  
B|------------------------------------|
G|-11-11--11-11-11-11-11--11-11-11-11-| x4
D|-14-14--14-14-14-14-14--14-14-14-14-| 
A|-14-14--14-14-14-14-14--14-14-14-14-|
E|-12-12--12-12-12-12-12--12-12-12-12-|
        
e|------------------------------------|
B|------------------------------------|
G|-4-4--4-4-4-4-4--4-4-4-4------------| x2
D|-6-6--6-6-6-6-6--6-6-6-6------------|
A|-6-6--6-6-6-6-6--6-6-6-6------------|
E|-4-4--4-4-4-4-4--4-4-4-4------------|

e|------------------------------------|  
B|------------------------------------|
G|-11-11--11-11-11-11-11--11-11-11-11-| x2
D|-14-14--14-14-14-14-14--14-14-14-14-| 
A|-14-14--14-14-14-14-14--14-14-14-14-|
E|-12-12--12-12-12-12-12--12-12-12-12-|


Verse 1 (0:26):

e|------------------------------------|  
B|------------------------------------|
G|-11-11--11-11-11-11-11--11-11-11-11-| x4
D|-14-14--14-14-14-14-14--14-14-14-14-| 
A|-14-14--14-14-14-14-14--14-14-14-14-|
E|-12-12--12-12-12-12-12--12-12-12-12-|
        
e|------------------------------------|
B|------------------------------------|
G|-4-4--4-4-4-4-4--4-4-4-4------------| x2
D|-6-6--6-6-6-6-6--6-6-6-6------------|
A|-6-6--6-6-6-6-6--6-6-6-6------------|
E|-4-4--4-4-4-4-4--4-4-4-4------------|

e|------------------------------------|  
B|------------------------------------|
G|-11-11--11-11-11-11-11--11-11-11-11-| x2
D|-14-14--14-14-14-14-14--14-14-14-14-| 
A|-14-14--14-14-14-14-14--14-14-14-14-|
E|-12-12--12-12-12-12-12--12-12-12-12-|

Repeat once

Chorus 1 (1:04):

e|----------------------------------------------------|
B|----------------------------------------------------|
G|-9--9--9---9--9--9--9---9--9----6-6-6--6-6-6-6--6---|
D|-10-10-10--10-10-10-10--10-10---7-7-7--7-7-7-7--7---|
A|-10-10-10--10-10-10-10--10-10---7-7-7--7-7-7-7--7---|
E|-8--8--8---8--8--8--8---8--8----5-5-5--5-5-6-5--5---|

e|------------------------------------|  
B|------------------------------------|
G|-11-11--11-11-11-11-11--11-11-11-11-| x2
D|-14-14--14-14-14-14-14--14-14-14-14-| 
A|-14-14--14-14-14-14-14--14-14-14-14-|
E|-12-12--12-12-12-12-12--12-12-12-12-|

The lead guitar plays this over the chords:

e|-0--0-2-3-5--3-2--3-2--0----7~~~|
B|--------------------------------|
G|--------------------------------|
D|--------------------------------|
A|--------------------------------|
E|--------------------------------|


Verse 2 (1:14):

Same as Verse 1


Chorus 2 (1:52):

e|----------------------------------------------------|
B|----------------------------------------------------|
G|-9--9--9---9--9--9--9---9--9----6-6-6--6-6-6-6--6---|
D|-10-10-10--10-10-10-10--10-10---7-7-7--7-7-7-7--7---|
A|-10-10-10--10-10-10-10--10-10---7-7-7--7-7-7-7--7---|
E|-8--8--8---8--8--8--8---8--8----5-5-5--5-5-6-5--5---|

e|------------------------------------|  
B|------------------------------------|
G|-11-11--11-11-11-11-11--11-11-11-11-| x2
D|-14-14--14-14-14-14-14--14-14-14-14-| 
A|-14-14--14-14-14-14-14--14-14-14-14-|
E|-12-12--12-12-12-12-12--12-12-12-12-|

e|----------------------------------------------------|
B|----------------------------------------------------|
G|-9--9--9---9--9--9--9---9--9----6-6-6--6-6-6-6--6---|
D|-10-10-10--10-10-10-10--10-10---7-7-7--7-7-7-7--7---|
A|-10-10-10--10-10-10-10--10-10---7-7-7--7-7-7-7--7---|
E|-8--8--8---8--8--8--8---8--8----5-5-5--5-5-6-5--5---|

e|------------------------------------|  
B|------------------------------------|
G|-11-11--11-11-11-11-11--11-11-11-11-| x2
D|-14-14--14-14-14-14-14--14-14-14-14-| 
A|-14-14--14-14-14-14-14--14-14-14-14-|
E|-12-12--12-12-12-12-12--12-12-12-12-|


Lead guitar:

e|-0--0-2-3-5--3-2--3-2--0----7~~~|
B|--------------------------------|
G|--------------------------------| x2
D|--------------------------------|
A|--------------------------------|
E|--------------------------------|


Bridge (2:12):

e|--------------------------------------------------------------------------|
B|--------------------------------------------------------------------------|
G|--------------------------------------------------------------------------|
D|--------------------------------------------------------------------------|
A|--------------------------------------------------------------------------|
E|-0--2--4--5--5—7s10--11--12—14s16--17—17s19--21--21s0---------------------|

over the chords:

E x2  A x2  E x2  A x2

e|--------------------------------------------------------------------------|
B|--------------------------------------------------------------------------|
G|--------------------------------------------------------------------------|
D|--------------------------------------------------------------------------|
A|--------------------------------------------------------------------------|
E|-2--2-0-2-0-2--7-5-4-2—3--3s10-10-10-9-9—7--7--7s19--19-19-19-19-19s0-----|

over the chords:

F#m x2  B x2  G x1  D x1  B x2


Verse 3 (2:50):

Same as Verse 1 & 2


Chorus 3 (3:28):

Same as Chorus 2


Outro (3:47):

Same chords as verse


This part is played over the chords:

e|--9--7---------|
B|---------9--5--|
G|---------------| x4
D|---------------|
A|---------------|
E|---------------|

e|--8--6---------|
B|--------9--4---|
G|---------------| x2
D|---------------|
A|---------------|
E|---------------|

e|--9--7---------|
B|---------9--5--|
G|---------------| x4
D|---------------|
A|---------------|
E|---------------|

Song order:

Intro
Verse 1
Chorus 1
Verse 2
Chorus 2
Bridge
Verse 3
Chorus 3
Outro

            
            
Suggest correction
Creating personal tab
Creating personal tab
You can edit any tab online and save it as your Personal.

You can edit, replace or remove any tab part or add personal notes – all changes will be seen only by you.

Personal tabs can be accessed anytime from any device, even offline.
Learn more »
comments
print report bad tab
3 comments total.
0 reply
Garageking1479 379 Mar 14, 2009 06:42 PM

the outro is incorrect and u don't have the lead guitar of the chorus

0 reply
Rockspider333 10 Mar 29, 2009 09:29 PM

Chorus Lead:
e|-0--2-3-5-3-2--3-2-2-0--7~~~~---|
B|--------------------------------|
G|--------------------------------|
D|--------------------------------|
A|--------------------------------|
E|--------------------------------|

& it varies with this bit

e|-0--2-3-5-3-2--3-2-2-0----------|
B|------------------------0~~~~---|
G|--------------------------------|
D|--------------------------------|
A|--------------------------------|
E|--------------------------------|

Great tab!!! U2!!!

0 reply
Garageking1479 379 Apr 13, 2009 06:30 PM

Outro:
e|--9---7-------------------------|
B|---------9------5---------------|
G|--------------------------------|
D|--------------------------------|
A|--------------------------------|
E|--------------------------------|
and:
e|-----8----6---------------------|
B|---------------9-----4----------|
G|--------------------------------|
D|--------------------------------|
A|--------------------------------|
E|--------------------------------|

guest
You may want to rate the tab now too:
select rating
Wanna post a correction for this tab? Suggest correction