Oops, an error
Loading. Please wait.
We have an official One tab made by UG professional guitarists. Check out the tab »
×
by U2
40,488 views 69 this week
1 commentread comment
1 2 3 4 5
x 11
add to favorites
×
Save as Personal and add changes to this tab that will be seen only by you. Learn more ›
×
You can save this tab as Personal to edit and correct it or add notes. All changes will be seen only by you. Learn more »
launch autoscroll
font size
0
reset
how to read this tab
guitar tuner
backing track
0:00
0:00
edit
Autoscroll
slow
fast
+/-
esc
set tempo
stop
Tune down your guitar 1/2 step.

D#|---------------------------------------------------0-------0---------------------------|
A#|-------5-------5-----------------------------------1-3p1h3p1---3p1-------3-------------|
F#|--------7p5h7---7h5--------------------------------2---------------------4-4h5p4h5-4---| (x4)
C#|----------------------------12-10--h12p10h12----3--------------------3/5-------------5-|
G#|----------------------------12-10--h12p10h12-------------------------------------------|
D#|---3\5----------------8\10-------------------------------------------------------------|

D#|---------------------------------------------------0-------0---------------------------|
A#|-------5-------5-----------------------------------1-3p1h3p1---3p1-------3-------------|
F#|--------7p5h7---7h5--------------------------------2---------------------4-4h5p4h5-4---| (x2)
C#|----------------------------12-10--h12p10h12----3--------------------3/5-------------5-|
G#|----------------------------12-10--h12p10h12-------------------------------------------|
D#|---3\5----------------8\10-------------------------------------------------------------|

Is it getting better
Or do you feel the same?
Will it make it easier on you now
You got someone to blame... you say

D#|-----0-------0----0-------0----0-------0----0-------0-|
A#|-----1-3p1h3p1----1-3p1h3p1----1-3p1h3p1----1-3p1h3p1-|
F#|------------------------------------------------------|
C#|-----------------------------3------------------------| (x2)
G#|--3-------------0-------------------------3-----------|
D#|------------------------------------------------------|

One love
One life
When it's one need
In the night
It's one love
We get to share it
It leaves you baby
If you don't care for it

D#|--------------------------------------------------------------------|
A#|-------7------------------------------------------------------------|
F#|-------7-5-x-5------11-11-x-11-------2-2-x-2-------4-4-x-4----------|
C#|-------7-7-x-7------12-12-x-12-------3-3-x-3-------5-5-x-5----------|
G#|-------5-7-x-7------12-12-x-12-------3-3-x-3-------5-5-x-5------3h5-|
D#|---5-5-5-5-x-5--\10-10-10-x-10--/1-1-1-1-x-1--\3-3-3-3-x-3--3h5-----|

Did I disappoint you?
Or leave a bad taste in your mouth?
You act like you never had love
And you want me to go without ...well it's

D#|----------0-----------0--------1---------0-|
A#|-------1-----------1--------1---------1----|
F#|-------------------------------------------|
C#|-------------------------3-----------------| (x2)
G#|---3-3------3-2-0-----------------3-3------|
D#|-------------------------------------------|

Too late
Tonight
To drag the past out
Into the light
We're one
But we're not the same
We get to carry each other
Carry each other

D#|---------------------------|
A#|--8--8--8--8---------------|
F#|----9--9--9--9--11--10--12-|
C#|---------------------------|
G#|---------------------------|
D#|---------------------------|

One

D#|--------------------------------------------------------------------|
A#|-------7------------------------------------------------------------|
F#|-------7-5-x-5------11-11-x-11-------2-2-x-2-------4-4-x-4----------|
C#|-------7-7-x-7------12-12-x-12-------3-3-x-3-------5-5-x-5----------|
G#|-------5-7-x-7------12-12-x-12-------3-3-x-3-------5-5-x-5------3h5-|
D#|---5-5-5-5-x-5--\10-10-10-x-10--/1-1-1-1-x-1--\3-3-3-3-x-3--3h5-----|

Have you come here for forgiveness?
Have you come here to raise the dead?
Have you come here to play Jesus
To the lepers in your head?

D#|----------0-----------0--------1---------0-|
A#|-------1-----------1--------1---------1----|
F#|-------------------------------------------|
C#|-------------------------3-----------------| (x2)
G#|---3-3------3-2-0-----------------3-3------|
D#|-------------------------------------------|

Did I ask too much?
More than a lot?
You gave me nothing
Now it's all I got
We're one
But we're not the same
We hurt each other
Then we do it again

D#|----------0-----------0---------0---------0-----------0-|
A#|-------1-----------1---------1---------1-----------1----|
F#|--------------------------------------------------------|
C#|--------------------------------------------------------|
G#|---3-3------3-2-0------0-2-3-----3-2-0-------0-2-3------|
D#|--------------------------------------------------------|

You say
Love is a temple
Love a higher law
Love is a temple
Love the higher law
You ask me to enter

D#|-------3------------3---------------3------------3-------|
A#|---------------------------------------------------------|
F#|---2\4---4-5-4---4----4-5-4-----------2-3-2---2----2-3-2-|
C#|---------------5---------------2\3----------3------------|
G#|---------------------------------------------------------|
D#|---------------------------------------------------------|

But then you make me crawl
And I can't be holding on
To what you got
When all you got is hurt

D#|--12-12-12-12-12-12-12-12-12-13-12-|
A#|--13-13-13-13-13-13-13-13-13-13-13-|
F#|--12-13-13-13-13-12-12-12-12-12-12-|
C#|-----------------------------------| repeat several times
G#|-----------------------------------|
D#|-----------------------------------|

One love
One blood
One life
You got to do what you should
One life
With each other
Sisters
Brothers
One life
But we're not the same
We get to carry each other
Carry each other
One

[Solo]
D#|--------------------------------------------------------------------------|
A#|---13--15--17--15--13--15--17--15--13--15--17--15--13--15--17--18--17-15--|
F#|--------------------------------------------------------------------------| (x2)
C#|--------------------------------------------------------------------------|
G#|--------------------------------------------------------------------------|
D#|--------------------------------------------------------------------------|

D#|---------15-------15-------15--15-------15-------15--15-------15-------------------15-------|
A#|---17-18----12-13----12h13--------12-13----12h13--------12-13----13-12-------12-13----13-12-|
F#|-----------------------------------------------------------------------14-12----------------|
C#|--------------------------------------------------------------------------------------------| (x2)
G#|--------------------------------------------------------------------------------------------|
D#|--------------------------------------------------------------------------------------------|

D#|--------------------------------------------------------------------------|
A#|---13--15--17--15--13--15--17--15--13--15--17--15--13--15--17--18--17-15--|
F#|--------------------------------------------------------------------------|
C#|--------------------------------------------------------------------------|
G#|--------------------------------------------------------------------------|
D#|--------------------------------------------------------------------------|

D#|----------------------------------------------------------------------|
A#|---13--15--17--15--13--15--17--15--13--15--17--15--15--13--13--15--13-|
F#|----------------------------------------------------------------------|
C#|----------------------------------------------------------------------|
G#|----------------------------------------------------------------------|
D#|----------------------------------------------------------------------|


************************************

| h  Hammer-on
| p  Pull-off
| /  Slide up
| \  Slide down
| x  Dead note

************************************

            
            
Suggest correction
Creating personal tab
Creating personal tab
You can edit any tab online and save it as your Personal.

You can edit, replace or remove any tab part or add personal notes – all changes will be seen only by you.

Personal tabs can be accessed anytime from any device, even offline.
Learn more »
comments
print report bad tab
1 comment total.
0 reply
sld77 10 Dec 06, 2007 11:58 AM

Great job!! The intro, verse and chorus sound dead on.

guest
Wanna post a correction for this tab? Suggest correction