Oops, an error
Loading. Please wait.

Seconds bass

version 1
version 1

Whole song

Interactive

by U2
1,557 views 3 this week
2 commentsread comments
1 2 3 4 5
x 3
add to favorites
×
Save as Personal and add changes to this tab that will be seen only by you. Learn more ›
×
You can save this tab as Personal to edit and correct it or add notes. All changes will be seen only by you. Learn more »
launch autoscroll
font size
0
reset
guitar tuner
backing track
0:00
0:00
edit
Autoscroll
slow
fast
+/-
esc
set tempo
stop
Difficulty
U2 – Seconds (Tab created by Kargenn - kargenn@centrum.cz)

Verse (there is same verse in the hole song)

G-----------|-----------|-----------|-----------|
D--------4—-|--------4—-|--------4—-|-----------|
A--4--6-----|--4--6-----|--4--6-----|--4--6-----|
E-----------|-----------|-----------|-----------|

Refrain

G-----------|-----------|-----------|-----------|
D---------—-|---------—-|---------—-|-----------|
A---4---6---|---4---6---|---4---6---|---4---6---|
E-----------|-----------|-----------|-----------|
G-----------|-----------|-----------|-----------|
D---------—-|---------—-|---------—-|-----------|
A---4-------|---4-------|---4-------|---4-------|
E-------7---|-------7---|-------7---|-------7---|

G-----------|-----------|-----------|-----------|
D---------—-|---------—-|---------—-|-----------|
A---4---6---|---4---6---|---4---6---|---4---6---|
E-----------|-----------|-----------|-----------|
G-----------|-----------|-----------|-----------|
D---------—-|---------—-|---------—-|-----------|
A---4-------|---4-------|---4-------|---4-------|
E-------7---|-------7---|-------7---|-------7---|

            
            
Suggest correction
Creating personal tab
Creating personal tab
You can edit any tab online and save it as your Personal.

You can edit, replace or remove any tab part or add personal notes – all changes will be seen only by you.

Personal tabs can be accessed anytime from any device, even offline.
Learn more »
Give kudos to tab author, rate the tab!
1 2 3 4 5
comments
print report bad tab
2 comments total.
0 reply
jholmes98 65 May 04, 2013 04:25 AM

sometimes its nice to play the f# second on the E
so...
G-----------|-----------|-----------|-----------|
D--------4—-|---------—-|--------4—-|-----------|
A--4--6-----|--4--6-----|--4--6-----|--4--6-----|
E-----------|--------2--|-----------|-----------|

0 reply
jholmes98 65 May 04, 2013 04:25 AM

dont no why those symbols are there

guest
Wanna post a correction for this tab? Suggest correction