Oops, an error
Loading. Please wait.
We have an official Vertigo tab made by UG professional guitarists. Check out the tab »
×
by U2
12,636 views 6 this week
10 commentsread comments
1 2 3 4 5
x 13
add to favorites
×
Save as Personal and add changes to this tab that will be seen only by you. Learn more ›
×
You can save this tab as Personal to edit and correct it or add notes. All changes will be seen only by you. Learn more »
launch autoscroll
font size
0
reset
how to read this tab
guitar tuner
backing track
0:00
0:00
edit
Autoscroll
slow
fast
+/-
esc
set tempo
stop
Riff A - x4
e|--(7)—(7)---(7)-(7)-(7) --------------------------------|
B|--(7)—(7)---(7)-(7)—(7)---------------------------------|
G|---x---x-----x---x---x----------------------------------|
D|---x---x-----x---x---x----------------------------------|
A|---x---x-----x---x---x----------------------------------|
E|---x---x-----x---x---x----------------------------------|

Once, doce, trece, catorce

Riff B - x4
e|---------------------------------------------------------|
B|---------------------------------------------------------|
G|---------------------------------------------------------|
D|-12/14------7-5------------------------------------------|
A|-12/14-(x3)-7-5------------------------------------------|
E|-10/12------5-3------------------------------------------|

Turn it up loud, captain

Riff A (softer and quietly)

Lights go down
It's dark, the jungle is 
Your head can't rule your heart
I'm feeling so much stronger 
Than I thought 
Your eyes are wide
And though your soul 
It can't be bought 
Your mind can wander

Riff C - x 2 
e|---------------------------------------------------------|
B|---------------------------------------------------------|
G|---------------------------------------------------------|
D|-12/14—-14-—12-—5--7-------------------------------------|
A|-12/14—-14-—12-—5--7-------------------------------------|
E|-10/12—-12-—10--3--5-------------------------------------|

Hello, hello
Hola
I'm at a place called Vertigo 
Donde esta
It's everything I wish I didn't know
Except you give me something I can (Riff B - x2) feel
Feel

Riff A (softer and quietly)

The night is full of holes
These bullets rip the sky
Of ink with gold
They twinkle 
As the boys play rock and roll
They know that they can't dance
At least they know

e|--12----10----10-----------------------------|
B|-----12----12----12--------------------------|
G|---------------------------------------------|
D|-—--—-—--------------------------------------|
A|-—--—-—--------------------------------------|
E|-—--—----------------------------------------|

I can sell the beats
I'm asking for the check
Girl with crimson nails
Has Jesus 'round the neck
Swinging to the music
Swinging to the music

Riff C - x 2 

Hello, hello
Hola
I'm at a place called Vertigo 
Dond' esta
It's everything I wish I didn't know
But you give me something I can (Riff B - x2) feel
Feel

Riff D - x 3 
e|----------------------------------------|
B|----------------------------------------|
G|-12-11-9--------------------------------|
D|-12—11-9--------------------------------|
A|-10—9--7--------------------------------|
E|-—--—-----------------------------------|

Shot dead
Shots fall
Show me, yeah

Riff B - x4 (with back riff)
e|-12-12-12-12-12-12--------------|
B|-10-10-10-9--9--9--7-7-7-5-5-5--|
G|--------------------------------|
D|-—--—-—-------------------------|
A|-—--—-—-------------------------|
E|-—--—---------------------------|

(then)
e|-------19-------17-----2ndtime----15---------|
B|-15-17----15-17----------------17------------|
G|---------------------------------------------|
D|-—--—-—--------------------------------------|
A|-—--—-—--------------------------------------|
E|-—--—----------------------------------------|

All of this, all of this can be yours
All of this, all of this can be yours
All of this, all of this can be yours
Just give me what I want
And no one gets hurt

Riff C - x 2 
Hello, hello
Hola
We're at a place called Vertigo
Dond' esta
Lights go down and all I know 
Is that you give me something 
Riff C - x 2 (with back riff) 
Maybe, I'm not shure, but it fits
e|-17-16-14----14-16-------------------------|
B|----------17-------15-14-15-14-15-17-17----|
G|-------------------------------------------|
D|-—--—-—------------------------------------|
A|-—--—-—------------------------------------|
E|-—--—--------------------------------------|
I can feel your love teaching me how
Your love is teaching me how
(Riff B - x2)
How to kneel
Kneel

(Riff B - x2)
Yeah, yeah, yeah, yeah
Yeah, yeah, yeah, yeah
Yeah, yeah, yeah, yeah
Yeah, yeah, yeah, yeah
Em

            
            
Suggest correction
Creating personal tab
Creating personal tab
You can edit any tab online and save it as your Personal.

You can edit, replace or remove any tab part or add personal notes – all changes will be seen only by you.

Personal tabs can be accessed anytime from any device, even offline.
Learn more »
comments
print report bad tab
10 comments total. Showing first comments.
0 reply
linkinpark821 20 Nov 15, 2004 07:00 PM

pretty good, it's correct but i think it's easier to play the intro instead of E-------------- E--------------
B-------------- B--------------
G-------------- G-7/9----------
D-12/14-------- D-5/7---------- (x3)
A-10/12-------- (x3) A-5/7----------
E-10/12-------- it's easier as: E---------------

0 reply
linkinpark821 20 Nov 15, 2004 07:00 PM

ok that came out a little messy...
Easier As
D--12/14- G-7/9-----
A--10/12- D-5/7-----
E--10/12- A-5/7-----
E---------

0 reply
linkinpark821 20 Nov 15, 2004 07:00 PM

ugh, u get the picture

guest
Wanna post a correction for this tab? Suggest correction